Oops, an error
Loading. Please wait.

Push The Hand Bass Tab

767 views 1 this week
no commentswrite comment
1 2 3 4 5
please rate
add to favorites
launch autoscroll
font size
0
reset
guitar tuner
Autoscroll
slow
fast
+/-
esc
set tempo
stop
Help us to improve Ultimate-Guitar.com Take our survey!
×
Author
DannyD88 522
----------------------------------------------------------------------------
			  Push The Hand - Toadies
----------------------------------------------------------------------------

Bass comes in at 0:08
 G|---------------------|
 D|-----1-----1-1-2-1---|
 A|-0-3---0-3---------3-|
 E|---------------------|

timing here is pretty tricky so listen close
 G|------------------------|
 D|------------------------| x3
 A|--------------------0---|
 E|-2-2-xx-0-2-2-xx--0---0-|

 G|---------------------|
 D|-----1-----1-1-2-1---|
 A|-0-3---0-3---------3-|
 E|---------------------|

 G|------------------------|
 D|------------------------| x3
 A|--------------------0---|
 E|-2-2-xx-0-2-2-xx--0---0-|

 G|---------------------|
 D|-----1-----1-1-2-1---|
 A|-0-3---0-3---------3-|
 E|---------------------|

 G|--------------------------|
 D|--------------------------| x8
 A|-----0-2-3--------2-3-4---|
 E|-2-2-------0--2-2-------0-|

 G|------------------------|
 D|------------------------| x3
 A|--------------------0---|
 E|-2-2-xx-0-2-2-xx--0---0-|

 G|---------------------|
 D|-----1-----1-1-2-1---|
 A|-0-3---0-3---------3-|
 E|---------------------|

 G|------------------------|
 D|------------------------| x3
 A|--------------------0---|
 E|-2-2-xx-0-2-2-xx--0---0-|

 G|---------------------|
 D|-----1-----1-1-2-1---|
 A|-0-3---0-3---------3-|
 E|---------------------|

 G|--------------------------|
 D|--------------------------| x8
 A|-----0-2-3--------2-3-4---|
 E|-2-2-------0--2-2-------0-|


 G|-----------------------------------------------|
 D|-----------------------------------------------|
 A|-0-0------0-0-------0--------------------------|
 E|-----xx-0-----xx--0---0-2-2-xx-0-2-2-xx--0-2-0-|

  |-------------------------|
  |-------------------------|
  |-0-0------0-0-------3333-|
  |-----xx-0-----xx--0------|

you play this for a while from 1:56 to 3:24 
 G|--------------------------|
 D|--------------------------| 
 A|-----0-2-3--------2-3-4---|
 E|-2-2-------0--2-2-------0-|

then end with this
 G|-----------------|
 D|-----------------|
 A|-----------------|
 E|-2-2-x-2-2-x-x-x-|

 G|-----------|
 D|-----------|
 A|-----------|
 E|-2-2-x-2-2-|

listen to the song to get all the timing right its kinda hard

| x  Mute note
============================================================================
Suggest correction
What's this?
You can suggest a correction to this tab. Community and Mods will review your correction and vote to approve or reject it.
comments
We did not receive enough feedback on this tab! Please rate:
print report bad tab
1 2 3 4 5
guest
You may want to rate the tab now too:
select rating
Please do not post tabs as comments. Select "correction" instead!