Oops, an error
Loading. Please wait.

Quitter Tab

version 3
version 3

Whole song

779 views 4 this week
no commentswrite comment
1 2 3 4 5
please rate
add to favorites
launch autoscroll
font size
0
reset
how to read this tab
guitar tuner
Tab Pro tools
  • play this tab
  • loop segment
  • change instrument
  • show fretboard
  • metronome
×
Best way to learn
"Quitter"
Autoscroll
slow
fast
+/-
esc
set tempo
stop
Contributor
Difficulty
intermediate
-------------------------------------------------------------------------------
                             QUITTER - Toadies
-------------------------------------------------------------------------------
Tabbed by: ironmanben
Email: bentrooper@gmail.com

Tuning: e B G D A E

guitar 1 - Darrel Herbert - rhythm
guitar 2 - Todd Lewis - rhythm
guitar 3 - Todd Lewis - lead
guitar 4 - Darrel Herbert - lead


intro:
(guitar 1:)
e|--------------|
B|--------------|
G|--------------|
D|--------------|
A|-8~-------(8)-|
E|-8~-------(8)-|

main riff:
(guitar 1:)
e|----------------------------------|
B|----------------------------------|
G|----------------------------------|
D|----------------------------------|
A|-8-7-008-7-008-7-008-7-0011-11~11-|
E|-8-7-008-7-008-7-008-7-0011-11~11-|
       xx    xx    xx    xx


main riff:
(guitar 2:)
e|----------------------------------|
B|----------------------------------|
G|----------------------------------|
D|----------------------------------|
A|-8-7-xx8-7-xx8-7-xx8-7-xx---------|
E|-8-7-xx8-7-xx8-7-xx8-7-xx11-11~11-|

chorus:
(guitar 3:)
Guitar 3's chorus uses 4 chords or chord variations:
e|----------------------------12-----------------|
B|-12-----------12------------15^(17)------0-----|
G|-14^(16)------14pb(16)-------------------2^(4)-|
D|-----------------------------------------------|
A|-----------------------------------------------|
E|-----------------------------------------------|
   ^1           ^2            ^3           ^4
Under each part of the chorus and part 1 of chorus 2, I will have numbers from 1 - 4.
number will represent what chords guitar 3 plays, using the key above to determine what
goes with each number.  The chord is played continuously until you see the next no., and 
chord will then be played continuously.

chorus:
(guitars 1 & 2 [guitar 3 playing the chords represented under each section]:)
e|-------------------------------------|
B|-------------------------------------|
G|-9-9-9-9-7-7-7-7-6-6-6-6-------------|
D|-9-9-9-9-8-8-8-8-7-7-7-7-10-10-10-10-|
A|-7-7-7-7-8-8-8-8-7-7-7-7-10-10-10-10-|
E|-0-0-0-0-6-6-6-6-5-5-5-5-8--8--8--8--|
   1 2     1 2     1 2 1 2    1  2

e|-------------------------------------|
B|-------------------------------------|
G|-9-9-9-9-7-7-7-7-6-6-6-6-------------|
D|-9-9-9-9-8-8-8-8-7-7-7-7-10-10-10-10-|
A|-7-7-7-7-8-8-8-8-7-7-7-7-10-10-10-10-|
E|-0-0-0-0-6-6-6-6-5-5-5-5-8--8--8--8--|
   2 1 2 1 2 1 2 1 2 1 2   3

e|-------------------------------------|
B|-------------------------------------|
G|-9-9-9-9-7-7-7-7-6-6-6-6-------------|
D|-9-9-9-9-8-8-8-8-7-7-7-7-10-10-10-10-|
A|-7-7-7-7-8-8-8-8-7-7-7-7-10-10-10-10-|
E|-0-0-0-0-6-6-6-6-5-5-5-5-8--8--8--8--|
   2 1 2

e|---------------------------------|
B|---------------------------------|
G|-9-9-9-9-7-7-7-7-6-6-6-6-4-4-4-4-|
D|-9-9-9-9-8-8-8-8-7-7-7-7-5-5-5-5-|
A|-7-7-7-7-8-8-8-8-7-7-7-7-5-5-5-5-|
E|-0-0-0-0-6-6-6-6-5-5-5-5-3-3-3-3-|
   4


verse:
(guitar 1:)
e|-----------------------------------------------------|
B|-----8-------8---------------------------------------|
G|-----9-------9-------7-------7-------6---------9-----|
D|-9-9-9-9-9-9-9-9-----8-------8-------7---------10----|
A|-7-7-7-7-7-7-7-7-8-8-8-8-8-8-8-8-7-7-7-7-10-10-10-10-|
E|-----------------6-6-6-6-6-6-6-6-5-5-5-5-8--8--8--8--|
   x x   x x x   x x x   x x x   x x x   x x  x     x

e|-----------------------------------------------------|
B|-----8-------8---------------------------------------|
G|-----9-------9-------7-------7-------6---------9-----|
D|-9-9-9-9-9-9-9-9-----8-------8-------7---------10----|
A|-7-7-7-7-7-7-7-7-8-8-8-8-8-8-8-8-7-7-7-7-10-10-10-10-|
E|-----------------6-6-6-6-6-6-6-6-5-5-5-5-8--8--8--8--|
   x x   x x x   x x x   x x x   x x x   x x  x     x

e|-----------------------------------------------------|
B|-----8-------8---------------------------------------|
G|-----9-------9-------7-------7-------6---------9-----|
D|-9-9-9-9-9-9-9-9-----8-------8-------7---------10----|
A|-7-7-7-7-7-7-7-7-8-8-8-8-8-8-8-8-7-7-7-7-10-10-10-10-|
E|-----------------6-6-6-6-6-6-6-6-5-5-5-5-8--8--8--8--|
   x x   x x x   x x x   x x x   x x x   x x  x     x

e|-----------------------------------------------------|
B|-----8-------8---------------------------------------|
G|-----9-------9-------7-------7-----------------------|
D|-9-9-9-9-9-9-9-9-----8-------8---7-7-7-7-10-10-10-10-|
A|-7-7-7-7-7-7-7-7-8-8-8-8-8-8-8-8-7-7-7-7-10-10-10-10-|
E|-----------------6-6-6-6-6-6-6-6-5-5-5-5-8--8--8--8--|
   x x   x x x   x x x   x x x   x


chorus 2 part 1:
(guitars 1 & 2 [guitar 3 playing the chords represented under each section]:)

e|-------------------------------------|
B|-------------------------------------|
G|-9-9-9-9-7-7-7-7-6-6-6-6-------------|
D|-9-9-9-9-8-8-8-8-7-7-7-7-10-10-10-10-|
A|-7-7-7-7-8-8-8-8-7-7-7-7-10-10-10-10-|
E|-0-0-0-0-6-6-6-6-5-5-5-5-8--8--8--8--|
   1 2     1 2     1 2 1 2    1  2

e|-------------------------------------|
B|-------------------------------------|
G|-9-9-9-9-7-7-7-7-6-6-6-6-------------|
D|-9-9-9-9-8-8-8-8-7-7-7-7-10-10-10-10-|
A|-7-7-7-7-8-8-8-8-7-7-7-7-10-10-10-10-|
E|-0-0-0-0-6-6-6-6-5-5-5-5-8--8--8--8--|
   2 1 2 1 2 1 2 1 2 1 2   3

e|-------------------------------------|
B|-------------------------------------|
G|-9-9-9-9-7-7-7-7-6-6-6-6-------------|
D|-9-9-9-9-8-8-8-8-7-7-7-7-10-10-10-10-|
A|-7-7-7-7-8-8-8-8-7-7-7-7-10-10-10-10-|
E|-0-0-0-0-6-6-6-6-5-5-5-5-8--8--8--8--|
   1 2     1 2     1 2 1 2    1  2

e|-------------------------------------|
B|-------------------------------------|
G|-9-9-9-9-7-7-7-7-6-6-6-6-------------|
D|-9-9-9-9-8-8-8-8-7-7-7-7-10-10-10-10-|
A|-7-7-7-7-8-8-8-8-7-7-7-7-10-10-10-10-|
E|-0-0-0-0-6-6-6-6-5-5-5-5-8--8--8--8--|
   2 1 2 1 2 1 2 1 2 1 2   3


chorus 2 part 2:
(guitar 1:)
e|---------------------------------|---------------------------------|
B|---------------------------------|---------------------------------|
G|---------7-7-7-7-6-6-6-6-4-4-4-4-|---------7-7-7-7-6-6-6-6-4-4-4-4-|
D|-2-2-2-2-8-8-8-8-7-7-7-7-5-5-5-5-|-2-2-2-2-8-8-8-8-7-7-7-7-5-5-5-5-|
A|-2-2-2-2-8-8-8-8-7-7-7-7-5-5-5-5-|-2-2-2-2-8-8-8-8-7-7-7-7-5-5-5-5-|
E|-0-0-0-0-6-6-6-6-5-5-5-5-3-3-3-3-|-0-0-0-0-6-6-6-6-5-5-5-5-3-3-3-3-|

e|---------------------------------|---------------------------------|
B|---------------------------------|---------------------------------|
G|---------7-7-7-7-6-6-6-6-4-4-4-4-|---------7-7-7-7-6-6-6-6-4-4-4-4-|
D|-2-2-2-2-8-8-8-8-7-7-7-7-5-5-5-5-|-2-2-2-2-8-8-8-8-7-7-7-7-5-5-5-5-|
A|-2-2-2-2-8-8-8-8-7-7-7-7-5-5-5-5-|-2-2-2-2-8-8-8-8-7-7-7-7-5-5-5-5-|
E|-0-0-0-0-6-6-6-6-5-5-5-5-3-3-3-3-|-0-0-0-0-6-6-6-6-5-5-5-5-3-3-3-3-|

chorus part 2:
(guitar 2:)
Guitar 2 alternates between these chords in rhythm:
e|-0---------------0-------0-------3-----|
B|-0-------3-------2-------3-------6^(8)-|
G|---------3-----------------------------|
D|---------------------------------------|
A|---------------------------------------|
E|---------------------------------------|
You can noodle on that, and add in some other chords too, for example, something like this:
e|-0-0-0-0---0-0---------------|
B|-0-0-0-2---0-2h3---3---x-2-0-|
G|-------------------3---x-2-0-|
D|-----------------------------|
A|-----------------------------|
E|-----------------------------|

solo rhythm:
(guitar 1:)
 | x8              | x1                                                    |
e|-----------------|-------------------------------------------------------|
B|-----------------|-------------------------------------------------------|
G|-3-3-3-3-3-3-3-3-|-5-5-5-5-5-5-5-5-3-3-3-3-------------------------------|
D|-4-4-4-4-4-4-4-4-|-5-5-5-5-5-5-5-5-3-3-3-3----/9-------------------------|
A|-4-4-4-4-4-4-4-4-|-3-3-3-3-3-3-3-3-1-1-1-1---------7-----------------(7)-|
E|-2-2-0-2-2-2-0-2-|-------------------------------------------------------|
-| (guitar 2:)     |                 x x x                                 |
e|-----------------|-------------------------------------------------------|
B|-----------------|-----------------------3-------------------------------|
G|-3-3-3-3-3-3-3-3-|-5-5-5-5-5-5-5-5-3-3-3-1-------------------------------|
D|-4-4-4-4-4-4-4-4-|-5-5-5-5-5-5-5-5-3-3-3-3-------------------------------|
A|-4-4-4-4-4-4-4-4-|-3-3-3-3-3-3-3-3-1-1-1-1-------------------------------|
E|-2-2-0-2-2-2-0-2-|----------------------------0-3^-0-----------------(0)-|
                                     x x x

solo:
(guitar 4:)
e|---------------------------------9-12----12----------------|
B|-13^------13pb(15)-13gb(15)---10------10----10---14brb(16)-|
G|-13^-------------------------------------------------------|
D|-----------------------------------------------------------|
A|-----------------------------------------------------------|
E|-----------------------------------------------------------|

Those are 14's, 17's, and 16's.
e|-1414141414141414141414141414141417171616141416161616161614141414-|
B|-1414141414141414141414141414141414141414141414141414141414141414-|
G|------------------------------------------------------------------|
D|------------------------------------------------------------------|
A|------------------------------------------------------------------|
E|------------------------------------------------------------------|

e|-18181818181818181818--1919--20202020202020202020202020---21-|
B|-14141414141414141414--1414--14141414141414141414141414---14-|
G|-------------------------------------------------------------|
D|-------------------------------------------------------------|
A|-------------------------------------------------------------|
E|-------------------------------------------------------------|

e|-21212121212121-21-21---14141414141414141414141414141414-----------------|
B|-14141414141414-14-14---13131313131313131313131313131313-----------------|
G|-------------------------------------------------------------------------|
D|-------------------------------------------------------------------------|
A|-------------------------------------------------------------------------|
E|---------------------------------------------------------0~----------(0)-|

Order:
main riff x4
chorus
verse
chorus
verse
chorus 2 part 1
chorus 2 part 2
main riff x4
solo
verse
chorus 2 part 1
chorus 2 part 2
main riff x4


************************************

| /   slide up
| \   slide down
| h   hammer-on
| p   pull-off
| ~   vibrato
| +   harmonic
| x   Mute note
| b   Bend
| pb  Pre-bend
| br  Bend release
| pbr Pre-bend release
| brb Bend release bend
| gb  Gradual bend

************************************
comments
We did not receive enough feedback on this tab! Please rate:
print report bad tab
1 2 3 4 5
I want to post or [tab]
guest
You may want to rate the tab now too:
select rating
Please do not post tabs as comments. Select "correction" instead!