Oops, an error
Loading. Please wait.

Song I Hate Tab

version 2
version 2

Intro

1,563 views 1 this week
no commentswrite comment
1 2 3 4 5
please rate
add to favorites
launch autoscroll
font size
0
reset
how to read this tab
guitar tuner
Autoscroll
slow
fast
+/-
esc
set tempo
stop
Help us to improve Ultimate-Guitar.com Take our survey!
×
Author
-------------------------------------------------------------------------------
                             SONG NAME - Band Name
-------------------------------------------------------------------------------
Tabbed by:DaddyEarwig
Email:daddyearwig@Hotmail.com

Tuning:Standard

e|-------------------------------------------------------------------------|
B|---------5------------5-------------4-------------4----------5----------5|
G|--4-------------4------------5--------------5----------6-----------6-----|
D|-------------------------------------------------------------------------|
A|-------------------------------------------------------------------------|
E|-------------------------------------------------------------------------|

e|-5--------5------------4------------4------------------------------------|
B|-----5---------5--------------5----------5------7----------7-------------|
G|-----------------------------------------------------8------------8------|
D|-------------------------------------------------------------------------|
A|-------------------------------------------------------------------------|
E|-------------------------------------------------------------------------|

e|-------------------------------------------------------------------------|
B|-5------------5-----------------------5----------------------------------|
G|-------6------------6-----------6-----------6----------------------------|
D|--------------------------7----------------------------------------------|
A|-------------------------------------------------------------------------|
E|-------------------------------------------------------------------------|
Suggest correction
Give kudos to tab author, rate the tab!
1 2 3 4 5
comments
print report bad tab
guest
You may want to rate the tab now too:
select rating
Please do not post tabs as comments. Select "correction" instead!