Oops, an error
Loading. Please wait.

Sweetness Tab

1,233 views 12 this week
no commentswrite comment
1 2 3 4 5
please rate
add to favorites
launch autoscroll
font size
0
reset
how to read this tab
guitar tuner
Autoscroll
slow
fast
+/-
esc
set tempo
stop
Help us to improve Ultimate-Guitar.com Take our survey!
×
-------------------------------------------------------------------------------
                             SWEETNESS - The Toadies
-------------------------------------------------------------------------------
Title: Sweetness
Artist: The Toadies
Album: Hell Below, Stars Above
Tuning: Standard

Couldn't find any correct tabs for this song.  Heres how it goes. 
Enjoy, --KN

Intro
e|---------------------------------------------------|
B|---------------------------------------------------|
G|---------------------------------------------------|
D|-----0-----------0-----0---------------------------|
A|--------------3------------------3-3(bend up 1/4) -|
E|-1-1---1-2-2-------1-1----1-2-2--------------------|x2

Verse:
e|--------------------------------------|
B|--------------------------------------|
G|--------------------------------------|
D|-----0-----------0-----0--------------|
A|--------------3------------------3-3b-|
E|-1-1---1-2-2-------1-1----1-2-2-------|x8
  "Peel away your skin..."

Buildup:
e|-0-0-0-0-0-0-0-0|0-0-0-0-0-0-0-0|0-0-0-0-0-0-0-0|0-0-0-0-0-0-0-0|
B|-3-3-3-3-3-3-3-3|3-3-3-3-3-3-3-3|6-6-6-6-6-6-6-6|6-6-6-6-6-6-7-7|
G|-2-2-2-2-2-2-2-2|2-2-2-2-2-2-2-2|5-5-5-5-5-5-5-5|5-5-5-5-5-5-5-5|
D|-0-0-0-0-0-0-0-0|0-0-0-0-0-0-0-0|0-0-0-0-0-0-0-0|0-0-0-0-0-0-0-0|
A|-0-0-0-3-0-0-0-3|0-0-0-3-0-0-0-3|---------------|---------------|
E|----------------|---------------|---------------|---------------|
  "sweetness..."
e|-0-0-0-0-0-0-0-0|0-0-0-0-0-0-0-0|0-0-0-0-0-0-0-0|2-2-3-3-4-4-5|
B|-3-3-3-3-3-3-3-3|3-3-3-3-3-3-3-3|6-6-6-6-6-6-6-6|2-2-3-3-4-4-5|
G|-2-2-2-2-2-2-2-2|2-2-2-2-2-2-2-2|5-5-5-5-5-5-5-5|3-3-4-4-5-5-6|
D|-0-0-0-0-0-0-0-0|0-0-0-0-0-0-0-0|0-0-0-0-0-0-0-0|4-4-5-5-6-6-7|
A|-0-0-0-3-0-0-0-3|0-0-0-3-0-0-0-3|---------------|4-4-5-5-6-6-7|
E|----------------|---------------|---------------|2-2-3-3-4-4-5|

Verse:
e|--------------------------------------|
B|--------------------------------------|
G|--------------------------------------|
D|-----0-----------0-----0--------------|
A|--------------3------------------3-3b-|
E|-1-1---1-2-2-------1-1----1-2-2-------|x8
  "I know it hurts real bad..."

Buildup:
e|-0-0-0-0-0-0-0-0|0-0-0-0-0-0-0-0|0-0-0-0-0-0-0-0|0-0-0-0-0-0-0-0|
B|-3-3-3-3-3-3-3-3|3-3-3-3-3-3-3-3|6-6-6-6-6-6-6-6|6-6-6-6-6-6-7-7|
G|-2-2-2-2-2-2-2-2|2-2-2-2-2-2-2-2|5-5-5-5-5-5-5-5|5-5-5-5-5-5-5-5|
D|-0-0-0-0-0-0-0-0|0-0-0-0-0-0-0-0|0-0-0-0-0-0-0-0|0-0-0-0-0-0-0-0|
A|-0-0-0-3-0-0-0-3|0-0-0-3-0-0-0-3|---------------|---------------|
E|----------------|---------------|---------------|---------------|x2
  "sweetness..."
e|-0-0-0-0-0-0-0-0|0-0-0-0-0-0-0-0|0-0-0-0-0-0-0-0|2-2-3-3-4-4-5|
B|-3-3-3-3-3-3-3-3|3-3-3-3-3-3-3-3|6-6-6-6-6-6-6-6|2-2-3-3-4-4-5|
G|-2-2-2-2-2-2-2-2|2-2-2-2-2-2-2-2|5-5-5-5-5-5-5-5|3-3-4-4-5-5-6|
D|-0-0-0-0-0-0-0-0|0-0-0-0-0-0-0-0|0-0-0-0-0-0-0-0|4-4-5-5-6-6-7|
A|-0-0-0-3-0-0-0-3|0-0-0-3-0-0-0-3|---------------|4-4-5-5-6-6-7|
E|----------------|---------------|---------------|2-2-3-3-4-4-5|

Chorus:
e|-----------------------------|
B|-----------------------------|
G|-----------------------------|
D|-8---8-9---9-8---8-9-xx-9-xx-|
A|-8---8-8---8-8---8-8-xx-8-xx-|
E|-6---6-7---7-6---6-7-xx-7-xx-|x6
  "Cut right down..."

Break:
e|----------------|
B|----------------|
G|----------------|
D|----------------|
A|------------2-2-|
E|-1---1-4-4------|x24
  "...the sinner in me..."
e|-----------------|--------------------------|--------------------------|
B|-----------------|--------------------------|--------------------------|
G|-----------------|--------------------------|--------------------------|
D|-----------------|--------------------------|--------------------------|
A|------------2-2b-|----------------------2-2-|----------------------2-2-|
E|-1---1-4-4-------|------------------4-4-----|------------------4-4-----|
                       "my sweetness,"            "my sweetness,"
e|-------------------------------2-2-3-3-4-4-5|
B|-------------------------------2-2-3-3-4-4-5|
G|-------------------------------3-3-4-4-5-5-6|
D|-------------------------------4-4-5-5-6-6-7|
A|-------------------------------4-4-5-5-6-6-7|
E|-------------------------------2-2-3-3-4-4-5|
  "my sweetness..."

Chorus:
e|-----------------------------|
B|-----------------------------|
G|-----------------------------|
D|-8---8-9---9-8---8-9-xx-9-xx-|
A|-8---8-8---8-8---8-8-xx-8-xx-|
E|-6---6-7---7-6---6-7-xx-7-xx-|x9
  "Cut right down..."

Solo:
e |-15-15-15-15-------------15-----15--------|
B |-------------14-14----------14-----14-----|
G |-------------------13-13-------13-----13--|
D |------------------------------------------|
A |------------------------------------------|
E |------------------------------------------|

e |------------------------------------|
B |------------------------------------|
G |------------------------------------|
D |------------------------------------|
A |------------------------------------|
E |--//66666666/77777777\66666666//\\--|

E |-15-15-15-15-------------------15-----15----|
B |-------------14-14----------14-----14-------|
G |-------------------13-13-13-----13------13--|
D |--------------------------------------------|
A |--------------------------------------------|
E |--------------------------------------------|

e |------------------------------------|
B |------------------------------------|
G |------------------------------------|
D |------------------------------------|
A |------------------------------------|
E |--//66666666/77777777\66666666//\\--|

Chorus:
e|--------------------------------|
B|--------------------------------|
G|--------------------------------|
D|-88---8-99---9-88---8-9-xx-9-xx-|
A|-88---8-88---8-88---8-8-xx-8-xx-|
E|-66---6-77---7-66---6-7-xx-7-xx-|x7
  "Cut right down..."

(Repeat Solo)

Outro:
e|----------------------------------|
B|----------------------------------|
G|----------------------------------|
D|-88---8-99---9-88---8-9---9---8\--|
A|-88---8-88---8-88---8-8---8---8\--|
E|-66---6-77---7-66---6-7---7---6\--|
  "Cut down..."

b  bend
x  Mute
/  slide up
\  slide down
===============================================================================
Suggest correction
Give kudos to tab author, rate the tab!
1 2 3 4 5
comments
print report bad tab
guest
You may want to rate the tab now too:
select rating
Please do not post tabs as comments. Select "correction" instead!