Oops, an error
Loading. Please wait.

The Song I Hate Chords

4,383 views 6 this week
no commentswrite comment
1 2 3 4 5
excellent!
x 3
add to favorites
launch autoscroll
font size
0
reset
transpose
0
reset
display chords
guitar tuner
Autoscroll
slow
fast
+/-
esc
set tempo
stop
Help us to improve Ultimate-Guitar.com Take our survey!
×
Contributor
Happy to see the Toadies back. Couldn't find a full tab for this song, so here's the 
of being bored on a Saturday afternoon. Not too complicated. by B Chalk

Chords

       F    A    D    A#    C    C#   D  A#(2)
E-----------------------------------------------------------|
B-----------------------------------------------------------|
G----------------7----3-------------------------------------|
D------3----7----7----3-----10----11----12-----8------------|
A------3----7----5----1-----10----11----12-----8------------|
E------1----5----------------8-----9----10-----6------------|

Intro

E-------------------------6---6---5---5-------------------------------------|
G---6---6---5---5---6---6---6---6---6---6-8---8---6---6--------6^5----------|
B-5---5---6---6---7---7---------------------9---9---7---7----7-----7--------|
D----------------------------------------------------------8----------------|

I'm giving up on you..6\

How could I ever call you mine
(Intro)
You're too pretty, too simple, too easy

You're just a waste of time, yeah

F-A (x4)

And I won't miss you when you're gone
(Intro)
You never move me anyway

I wanna wish you all the best and send you off
F        A                 D                 A#
I hope somebody finds you entertaining
C           C#                D       A#(2)
You're the song I hate
F                   A
But I can't let go
F                   A
You're the song I hate
F                    A
But I can't let go
F                    A

Brief lead over F-A-D-A# (x2). Listen to the song for timing and bends.
On the last part he bends the C up to D, holds it hits it 8 times, and ends coming back 
the C with a quick bend up and back to the D. If that makes any sense. It's easy if you listen

E---------------------------------------------------------|
B-----6b8^6~~------6B8^6^6^6-----/13B15-(x8)---13b^15^13--|
G--5----------5-------------------------------------------|
D---------------------------------------------------------|
A---------------------------------------------------------|
E---------------------------------------------------------|


You know it gets so hard, so hard to keep moving on
F            A             D           A#             F

Through all your petty little changes
A                 D                 A#
Sometimes I wish I could just close my eyes
F              A          D       A#     C
Wish you away
    C#       D    A#(2)

You're the song I hate
F             A
But I can't let go
F             A
You're the song I hate
F              A
But I can't let go
F               A

You're the song I
F           A
You're the song I
F           A
You're the song I
F           A
You're the song I hate
F           A

(Intro)
F-A-D-A#

The song I hate
F   A    D   A#


I tried so hard to change you to make you
G                    A#

E---------------------------------------------------|
B-------------------------9-------------------------|
G---------------------10----------------------------|
D---------------------------------------------------|


   Something I could enjoy
C                   D

E---------------------------------------------------|
B------------8-----------------6--------------------|
G--10\9-------------------7--7----7-----------------|
D--------10-----------------------------------------|

But you insist on just acting the plaything
G                          A#

E-------------------------------------------------------|
B---------6--------------------9------------------------|
G-------7-------------------10--------------------------|
D-------------------------------------------------------|

You're just a toy, just a toy
C                      C#
You're the song I hate
F            A
But I can't let go
F            A
You're the song I hate
F             A
But I can't let go
F             A
You're the song I
F           A
You're the song I
F            A
You're the song I
F             A
You're the song that I hate
F             A

You're the song I hate
F             A
But I can't let go
F              A
You're the song I hate
F              A
But I can't let go
F              A

Yeah
F     A
The song that I hate
F     A
Uh!
 F    A
You're the song I hate
F     A           F
comments
We did not receive enough feedback on this tab! Please rate:
print report bad tab
1 2 3 4 5
I want to post or [tab]
guest
You may want to rate the tab now too:
select rating
Please do not post tabs as comments. Select "correction" instead!