Oops, an error
Loading. Please wait.

Tyler Bass Tab

version 2
version 2

Whole song

Interactive

3,032 views 3 this week
3 commentsread comments
1 2 3 4 5
x 4
add to favorites
launch autoscroll
font size
0
reset
guitar tuner
Autoscroll
slow
fast
+/-
esc
set tempo
stop
Help us to improve Ultimate-Guitar.com Take our survey!
×
Author
Difficulty
novice
*****Alright, this is my first Tab so dont dog on it! ;)*****

This is it, I hope you enjoy!

Verse

G | |---------------------------------|
D |0|---------------------------------|
A |0|-5-5-5-5-------------------------|
E | |---------5-5-7-7-2-2-2-2-2-2-3-3-|


Chorus

G | |----------------------------------|
D |0|--0-0-0-0-------------------------|
A |0|---------0-0-2-2------------------|
E | |----------------2-2-2-2-2-2-2-3-3-|
Suggest correction
comments
print report bad tab
3 comments total.
0 reply
BabyBaSS22 31 Apr 23, 2007 01:01 PM

great tabs

0 reply
Ajones47 51 Jan 29, 2008 03:13 AM

Awesome ^_^

0 reply
JP240Z 10 Mar 15, 2009 12:23 AM

seriously?you know the chorus and verse that you put on here are the exact same thing right?

guest
You may want to rate the tab now too:
select rating
Wanna post a correction for this tab? Suggest correction