Oops, an error
Loading. Please wait.

Tyler Bass Tab

version 3
version 3

Whole song

Interactive

858 views 3 this week
no commentswrite comment
1 2 3 4 5
3 more votes to show rating
add to favorites
launch autoscroll
font size
0
reset
guitar tuner
Autoscroll
slow
fast
+/-
esc
set tempo
stop
Help us to improve Ultimate-Guitar.com Take our survey!
×
Author
Difficulty
novice
Intro
(start to play at 4 seconds of the song)
E-----5-6-------------|
A-5555----------------|
D---------9/44444-55--|
G---------------------|


E-----5-6-------------|
A-5555----------------|
D---------9/44444-55--|
G---------------------|

E-----5-6-------------|
A-5555----------------|
D---------9/44444-55--|
G---------------------|

E-----5-6-------------|
A-5555----------------|
D---------9/44444-55--|
G---------------------|

E-----5-6-------------|
A-5555----------------|
D---------9/44444-55--|
G---------------------|

(Stop Playing at 1:40)

(Start to play at 2:00)

Remember its only You and the drummer that could be heared until the 2:17

E-----5-6-------------|
A-5555----------------|
D---------9/44444-55--|
G---------------------|

E-----5-6-------------|
A-5555----------------|
D---------9/44444-55--|
G---------------------|


E-----5-6-------------|
A-5555----------------|
D---------9/44444-55--|
G---------------------|

E-----5-6-------------|
A-5555----------------|
D---------9/44444-55--|
G---------------------|

Final

E--------------|
A--------------|
D-9/1----------|
G--------------|


this is the way i play it
/ means slide
Suggest correction
Give kudos to tab author, rate the tab!
1 2 3 4 5
comments
print report bad tab
guest
You may want to rate the tab now too:
select rating
Wanna post a correction for this tab? Suggest correction