Oops, an error
Loading. Please wait.

Velvet Bass Tab

version 2
version 2

Whole song

215 views 1 this week
no commentswrite comment
1 2 3 4 5
please rate
add to favorites
launch autoscroll
font size
0
reset
guitar tuner
Autoscroll
slow
fast
+/-
esc
set tempo
stop
Help us to improve Ultimate-Guitar.com Take our survey!
×
Author
----------------------------------------------------------------------------
			    Velvet - Toadies
----------------------------------------------------------------------------

Bass comes in at 0:04
 G|-----------------------------------------|
 D|-----------------------------------------| x4
 A|------1111------2222------3333-4444-5555-|
 E|-3333------3333------3333----------------|

 G|----------------|
 D|----------------| x4
 A|----------------|
 E|-3-1-x-x-x-x-x-x|

 G|-----------------------------------------|
 D|-----------------------------------------| x2
 A|------1111------2222------3333-4444-5555-|
 E|-3333------3333------3333----------------|

 G|----------------|
 D|----------------| x4
 A|----------------|
 E|-3-1-x-x-x-x-x-x|
 
 G|-----------|
 D|-------1-0-| x4
 A|-11111-----|
 E|-----------|

 G|-----------|
 D|-----------| x2
 A|-------3-2-|
 E|-33333-----|

 G|-----------|
 D|-------1-0-| x4
 A|-11111-----|
 E|-----------|

 G|-----------|
 D|-----------| x2
 A|-------3-2-|
 E|-33333-----|

 G|-----------|
 D|-------1-0-| x4
 A|-11111-----|
 E|-----------|

 G|-----------|
 D|-----------| x4
 A|-------3-2-|
 E|-33333-----|

 G|-----|
 D|-----|
 A|-----|
 E|-3-3-|

Bass rests from 1:36 to 1:56 then play
 
 G|-----------------------------------------|
 D|-----------------------------------------| x3
 A|------1111------2222------3333-4444-5555-|
 E|-3333------3333------3333----------------|

 G|----------------|
 D|----------------| 
 A|----------------|
 E|-3-1-x-x-x-x-x-x|

 G|-----|
 D|-----| 
 A|-----|
 E|-3-1-|

============================================================================
| x  Mute note
============================================================================
Suggest correction
Give kudos to tab author, rate the tab!
1 2 3 4 5
comments
print report bad tab
guest
You may want to rate the tab now too:
select rating
Please do not post tabs as comments. Select "correction" instead!