Oops, an error
Loading. Please wait.

Waterfall Tab

235 views 1 this week
no commentswrite comment
1 2 3 4 5
please rate
add to favorites
launch autoscroll
font size
0
reset
how to read this tab
guitar tuner
Tab Pro tools
  • play this tab
  • loop segment
  • change instrument
  • show fretboard
  • metronome
×
Best way to learn
"Waterfall"
Autoscroll
slow
fast
+/-
esc
set tempo
stop
Contributor
Difficulty
intermediate
Waterfall
by the Toadies from the album Feeler
by Tim Sookram


main bit is Am C Em F. Verse riffs are based off that.
e---------------------------------------------|
B---------------------------------------------|
G---------------------------------------------|
D--2-2-2--5-5-5-------------------------------|
A--0-0-0--3-3-3--2-2-2--3-3-3-----------------|
E----------------0-0-0--1-1-1-----------------|
  Palm Mute this line

lead segue
e------------------------------------------------|
B------------------------------------------------|
G--------------------------------5-----9-----12--|
D--------------------5-----7---------------------|
A--0-----3-----7---------------------------------|
E------------------------------------------------|
slide between these when possible, not sure what string it's on


louder verse
e---------------------------------------------|
B---------------------------------------------|
G--2------------------------------------------|
D--2----5-5-5-5----2------2-0-----------------|
A--0----3-3-3-3----2---3----------------------|
E----------------0-0---1----------------------|
     PM * * * *  *
sometimes there's an extra A before the line begins - listen to the song


e----------------------------------------------|
A----------------------------------------------|
D--2-2--5-5------------------------------------|
G--2-2--5-5--2-2--3-3--------------------------|
B--0-0--3-3--2-2--3-3--------------------------|
E------------0-0--1-1--------------------------|
'nother variation



Chorus
e----------------------------------------------------|
B----------------------------------------------------|
G----------------------------------------------------|
D----2-----2-0--3------2------2-0--3-3--|--(3)-------|
A--3---0-3------3----3----0-3------3-3--|--(3)-------|
E---------------1------------------1-1--|--(1)-------|
                                         (last time only)

Bridge (try remembering all this) these are full power chords, i'm just lazy
e---------------------------------------------|------------------------------------------------|
B---------------------------------------------|------------------------------------------------|
G---------------------------------------------|------------------------------------------------|
D--5-5--7-7-------------5-5--7-7--------------|-7-7------------5-5---7-7------------5-5--------|
A--3-3--5-5--5-5--7-7---3-3--5-5-5-5--7-7-----|-5-5--7-7--3-3--3-3---5-5--5-5--7-7--3-3--------|
E------------3-3--5-5------------3-3--5-5-----|------5-5--1-1-------------3-3--5-5-------------|

e-------------------------------|-----------------------------------------|----------------------|
B-------------------------------|-----------------------------------------|----------------------|
G-------------------------------|-----------------------------------------|----------------------|
D-7-7------------7-7------------|-5-5--7-7------------5-5--7-7------------|--7---------------5---|
A-5-5--5-5--7-7--5-5--7-7--3-3--|-3-3--5-5--5-5--7-7--3-3--5-5--5-5--7-7--|--5----7-----3-3--3~~~|
E------3-3--5-5-------5-5--1-1--|-----------3-3--5-5------------3-3--5-5--|-------5-----1-1------|
                                 *short solo starts                          "one I love"

*short solo's just whammying an E on the g string: G|-9vvvvvv--|

when the verse comes back the lead kind of bends and feeds back on an A : D|---7b----|

I based this off the original Feeler version from 2000 or so. Solo's same chords as verse.

Solo
e----------------------------------------------------------------------------------------------|
B-10---------13-----------13------12------13-----12-------13p12--------------------------------|
G-12b14VVVV--15b17VVV-----15b17V--14b16V--15b17V-14b16V----------14-12--14b16r14VVVVV----------|
D----------------------------------------------------------------------------------------------|
A----------------------------------------------------------------------------------------------|
E----------------------------------------------------------------------------------------------|
Clark does some whackiness with the whammy bar(VVV) and unison bends.
Whammy makes it hard to hear. Transcription is loose. Give it a shot.

e------------------------------------------|-----------------------------------------12VVVV-----|
B--8-------10-------12---------------------|-------8-------10-------12--------------------------|
G-----9-9------9-9-----9-9-9-9-9-9-9-9VVVVV|----------9-9------9-9-----9-9-9-9-9-9-9------------|
D------------------------------------------|----------------------------------------------------|
A------------------------------------------|----------------------------------------------------|
E------------------------------------------|----------------------------------------------------|

e-----0-0------0-0-----0-0-0-0-0-0-0-0VVVV-|-----------------------------|
B--8-------10-------12---------------------|--13p12--10----10h12---10V---|
G------------------------------------------|------------12---------10V---|
D------------------------------------------|-----------------------------|
A------------------------------------------|-----------------------------|
E------------------------------------------|-----------------------------|
comments
We did not receive enough feedback on this tab! Please rate:
print report bad tab
1 2 3 4 5
I want to post or [tab]
guest
You may want to rate the tab now too:
select rating
Please do not post tabs as comments. Select "correction" instead!