Oops, an error
Loading. Please wait.

Youll Come Down Bass Tab

1,138 views 1 this week
3 commentsread comments
1 2 3 4 5
x 4
add to favorites
launch autoscroll
font size
0
reset
guitar tuner
Autoscroll
slow
fast
+/-
esc
set tempo
stop
Help us to improve Ultimate-Guitar.com Take our survey!
×
Author
----------------------------------------------------------------------------
			 You'll Come Down - Toadies
----------------------------------------------------------------------------

 G|-------------------|
 D|-------------5-6-7-| x2
 A|-5-5-----7-7-------|
 E|-----6-6-----------|

 G|-----------------------------------------------|
 D|-------------5-6-7-----------------------------|
 A|-5-5-----7-7-------8-5-5-----------------------|
 E|-----6-6-----------------6-6--7-7-7-7--6-6-6-6-|

 G|-------------------|
 D|-------------5-6-7-| x2
 A|-5-5-----7-7-------|
 E|-----6-6-----------|

 G|-----------------------------------------------|
 D|-------------5-6-7-----------------------------|
 A|-5-5-----7-7-------8-5-5-----------------------|
 E|-----6-6-----------------6-6--7-7-7-7--6-6-6-6-|

 G|-------------------|
 D|-------------5-6-7-| x2
 A|-5-5-----7-7-------|
 E|-----6-6-----------|

 G|-------------------------------------------------------------|
 D|-------------5-6-7-------------------------------------------|
 A|-5-5-----7-7-------8-55-5------------------------------------|
 E|-----6-6------------------66-6--77-7--66-6--7-7-7-7--6-6-6-6-|

 G|---------------------------------|
 D|---------------------------------| x2
 A|-5-5-5-5-------------------------|
 E|---------8-8-8-8-7-7-7-7-6-6-6-6-|

 G|------------------------------------|
 D|------------------------------------| 
 A|-5-5-5-5----------------------------|
 E|---------8-8-8-8---7-7-7-6-6-6-6-5~-|

 G|-------------------|
 D|-------------5-6-7-| x2
 A|-5-5-----7-7-------|
 E|-----6-6-----------|

 G|-----------------------------------------------|
 D|-------------5-6-7-----------------------------|
 A|-5-5-----7-7-------8-5-5-----------------------|
 E|-----6-6-----------------6-6--7-7-7-7--6-6-6-6-|

 G|-------------------|
 D|-------------5-6-7-| x2
 A|-5-5-----7-7-------|
 E|-----6-6-----------|

 G|-------------------------------------------------------------|
 D|-------------5-6-7-------------------------------------------|
 A|-5-5-----7-7-------8-55-5------------------------------------|
 E|-----6-6------------------66-6--77-7--66-6--7-7-7-7--6-6-6-6-|

 G|---------------------------------|
 D|---------------------------------| x2
 A|-5-5-5-5-------------------------|
 E|---------8-8-8-8-7-7-7-7-6-6-6-6-|

 G|---------------------------------|
 D|---------------------------------| 
 A|-5-5-5-5-------------------------|
 E|---------8-8-8-8---7-7-7-6-6-6-6-|

 G|-------------|
 D|---------5-4-|
 A|-----6-7-----|
 E|-5-5---------|

 G|-------------------------------------------|
 D|------------------(short-------------------|
 A|-------------------pause-------------------|
 E|-2-2-2-2-2-2-2-2-----here)---7-7-7-6-6-6-6-|

 G|---------------------------------|
 D|---------------------------------| x2
 A|-5-5-5-5-------------------------|
 E|---------8-8-8-8-7-7-7-7-6-6-6-6-|

 G|---------------------------------|
 D|---------------------------------| 
 A|-5-5-5-5-------------------------|
 E|---------8-8-8-8---7-7-7-6-6-6-6-|

 G|-------------|
 D|---------5-4-|
 A|-----6-7-----|
 E|-5-5---------|

 G|-------------------------------------------|
 D|--------------------(short-----------------|
 A|---0---0---0---0-1---pause-----------------|
 E|-2---2---2---2-------here)---7-7-7-6-6-6-6-|

 G|---------------------------------|
 D|---------------------------------| x2
 A|-5-5-5-5-------------------------|
 E|---------8-8-8-8-7-7-7-7-6-6-6-6-|

 G|---------------------------------|
 D|---------------------------------| 
 A|-5-5-5-5-------------------------|
 E|---------8-8-8-8---7-7-7-6-6-6-6-|

 G|-------------|
 D|-----------7-| 
 A|-5-5---7-7---|
 E|-----6-------|

==========================================================================
Suggest correction
comments
print report bad tab
3 comments total.
-1 reply
Trisomy21 52 Mar 25, 2007 08:19 PM

What the **** is this??? Not only is it completely wrong in every sense, it sounds horrible too!

-1 reply
DannyD88 592 Mar 28, 2007 11:56 AM

Dude have you ever even heard the song before, the tab is almost perfect. And it sounds pretty damn good when i play it so maybe you dont know how buddy.

+1 reply
ratmblink123 70 Jan 28, 2008 02:14 PM

Good tab.

guest
You may want to rate the tab now too:
select rating
Wanna post a correction for this tab? Suggest correction