Oops, an error
Loading. Please wait.

Without You chords

version 2
version 2

Whole song

1,379 views 15 this week
no commentswrite comment
1 2 3 4 5
x 3
add to favorites
×
Save as Personal and add changes to this tab that will be seen only by you. Learn more ›
×
You can save this tab as Personal to edit and correct it or add notes. All changes will be seen only by you. Learn more »
launch autoscroll
font size
0
reset
transpose
0
reset
simplify chords
display chords
guitar tuner
edit
Autoscroll
slow
fast
+/-
esc
set tempo
stop
Strumming
There is no strumming pattern for this song yet. and get +5 IQ
Tobias Jesso Jr. - Without You


Capo on the 1st fret


Intro
                                      C     F       G7
----------------------------------------------------------------------------------------
---------------------1--3-1---1--3-1--1---1-------1--3----------------------------------
-0--2--0----2--0--2--2--------2-------2-----2-----2--4----------------------------------
-2--2----2--4--------3--------2-------0-------3---3--3----------------------------------
-3--3-------3-------------------------------------3--5----------------------------------
----------------------------------------------------------------------------------------


Verse

 C                Em7              Dm7               F                 G
-----------------------------------1---1---1---1----------------------------------------
-1---1---1---1----3---3---3---3----1---1---1---1-----1---1---1---1-----3---3---3---3----
-0---0---0---0----0---0---0---0------2---2---2---2---2---2---2---2-----4---4---4---4----
---2---2---2---2----2---2---2---2--0-------------------3---3---3---3-----5---5---5---5--
-3----------------2---------------------------------------------------------------------
-----------------------------------------------------1-----------------3----------------


 C                Em7              F                  D7
----------------------------------------------------------------------------
-1---1---1---1----3---3---3---3----1---1---1---1------1---1---1---1---------
-0---0---0---0----0---0---0---0----2---2---2---2------2---2---2---2---------
---2---2---2---2----2---2---2---2----3---3---3---2-1--0-0---0---0---0-------
-3----------------2---------------------------------------------------------
-----------------------------------1----------------------------------------


 C                D7               F7              Esus4   E   E7           
----------------------------------------------------------------------------
-1---1---1---1----1---1---1---1----1----------------------------------------
-0---0---0---0----2---2---2---2----2---2---2---2---2---2---1---1------------
---2---2---2---2----0---0---0---0------1---1---1---2---2---2---0------------
-------------------------------------3---3---3---3---2---2---2---2----------
-3---------------------------------1----------------------------------------


____________________________________________________________________________________________________________


Intro


Verse
C                  Em7
Why can't you just love me?
Dm7             F             G
Should I move on or should I wait?
C                           Em7
How'd you get so high above me?
          F               D7
I reach higher every day
C                     D7
But nothing changes
       F7                     Esus4   E  E7
No, it all just stays the same



Chorus
F      G      Cmaj7     Fmaj7
I can hardly breathe without you
F            G               Cmaj7     Fmaj7   
There is no future I want to see without you
F            G                Cmaj7    Fmaj7
I just don't know who I would be without you
F        G                     Cmaj7     Fmaj7
There is nothing out there for me without you
   D7
Without you



Verse
C                  Em7
I feel like I just hit the ground
F                    Dm7         G     
Wish I could show you what it's like
C                   Em7
But you will never come down,
               F                  D7
And I've been staying up at night,
C               D7
To face the changes,
         F                      Esus4    E   E7
But they all just stay the same.




Chorus
F      G      Cmaj7     Fmaj7
I can hardly breathe without you
F            G               Cmaj7     Fmaj7   
There is no future I want to see without you
F            G                Cmaj7    Fmaj7
I just don't know who I would be without you
F        G                     Cmaj7     Fmaj7
There is nothing out there for me without you
   D7
Without you



Bridge
Am   G                     F        G
Oh, what have you got to lose?
Am   G                     F        G
Oh, what have you got to lose?
Am   C7                    F        D7    E   E7
Oh, what have you got to lose?



Chorus
F      G      Cmaj7     Fmaj7
I can hardly breathe without you
F            G               Cmaj7     Fmaj7   
There is no future I want to see without you
F            G                Cmaj7    Fmaj7
I just don't know who I would be without you
F        G                     Cmaj7     Fmaj7
There is nothing out there for me without you
F          G
There is nothing out there,
F          G
There is nothing out there,
F                      G         
There is nothing out there,
G       C
Without you.


C    Em7    F    D7    C

            
            
Suggest correction
Creating personal tab
Creating personal tab
You can edit any tab online and save it as your Personal.

You can edit, replace or remove any tab part or add personal notes – all changes will be seen only by you.

Personal tabs can be accessed anytime from any device, even offline.
Learn more »
Give kudos to tab author, rate the tab!
1 2 3 4 5
comments
print report bad tab
guest
You may want to rate the tab now too:
select rating
Wanna post a correction for this tab? Suggest correction