Oops, an error
Loading. Please wait.

Theme Song Tab

version 2
version 2

Whole song

1,803 views 1 this week
no commentswrite comment
1 2 3 4 5
please rate
add to favorites
launch autoscroll
font size
0
reset
how to read this tab
guitar tuner
Autoscroll
slow
fast
+/-
esc
set tempo
stop
Help us to improve Ultimate-Guitar.com Take our survey!
×
Difficulty
Tuning
novice
D A D G B E
This is my first tab so I hope you enjoy it.

e|--------------------------------|--------------------------------|
B|--------------------------------|--------------------------------|
G|--------------------------------|--------------------------------|
D|-3/5--5-7-----------3p0---------|-3/5---5-7---2-2-2/4------------|
A|-3/5-5------7p5-5-5-----3p0-----|-3/5-5-------3-3-3/5-0----------|
D|----------0---------------------|-----------0---------0----------|

e|--------------------------------|--------------------------------|
B|--------------------------------|--------------------------------|
G|--------------------------------|--------------------------------|
D|-3/5--5-7-----------3p0---------|-----------------0-3-5----------|
A|-3/5-5------7p5-5-5-----3p0-----|-----------0-3-5-------3-3h5----|
D|----------0---------------------|-----0-3-5----------------------|

Solo
e|--------------------------------|----------------------------12--|
B|-15p13----13--------------------|-------15p13----13----13-15-----|
G|-------14----14-12-14-15-14-12--|-14----------14----14-----------|
D|--------------------------------|----12--------------------------|
A|--------------------------------|--------------------------------|
D|--------------------------------|--------------------------------|

e|(12)----------------------------|--------------------------------|
B|-15-13-15-15p13----13-----------|--------------------------------|
G|----------------14----14-12-14--|-15-14-12-14----15-14-14----12--|
D|--------------------------------|-------------12----------15-----|
A|--------------------------------|--------------------------------|
D|--------------------------------|--------------------------------|

Repeat Intro x1

Suggest correction
Give kudos to tab author, rate the tab!
1 2 3 4 5
comments
print report bad tab
guest
You may want to rate the tab now too:
select rating
Please do not post tabs as comments. Select "correction" instead!