Oops, an error
Loading. Please wait.

I Love This Bar Tab

version 1
version 1

Whole song

48,337 views 42 this week
1 commentread comment
1 2 3 4 5
x 7
add to favorites
launch autoscroll
font size
0
reset
how to read this tab
guitar tuner
backing track
0:00
0:00
×
Best way to learn
"I Love This Bar"
Autoscroll
slow
fast
+/-
esc
set tempo
stop
Author
Difficulty
intermediate
Tuning: Lead Guitar DADGBE  Rhythm EADGBE

[Intro]
e|-7--------------------------------------3-3-2--------------------------|
B|---10-----------------------------------3-3-3---5\3/5---3------------3-|
G|-----9rb-7-9fb--------------------------2-2-2---4\2/4---2---4hb^-2-0---|
D|--------0-(0)---------0----------------0-------------------------------|
A|------------------0h2---0----------------------------------------------|
D|---------------------------3hb-rb3-0-----------------------------------|

[Verse]
D                       A       
We got winners,  We got losers,
G                 D                                A        
Chain-smokers and boozers, We got yuppies,  We got bikers,
       G                  A       
We got thirsty hitch-hikers,
        Bm                     A                 G           
And the girls next store dress-up like movie stars.
            Em    F#m   G     A            D                            
Hmmm, Hmmm, Hmmm, Hmmm, Hmmm, I love this bar.
  
[Chorus]
(D)           Bm                    D  
I love this bar,  It's my kind of place,
     E                                     A           
Just walkin through the front door, Puts a big smile on my face,
(A)             Bm                D              G 
It ain't too far,   Come as your aaaarrrrrrrreeee.
            Em    F#m   G     A            D
Hmmm, Hmmm, Hmmm, Hmmm, Hmmm, I love this bar.
  
[Solo]  
  D                      Bm (Slide Guitar Solo)   
e|----------------------|--------------------------------------|
B|----------------------|-----------b----r---------------------|
G|------------2---------|--------7-9-(11)-9-7---b------b----r--|
D|------0-2/4---4p2p0---|--9-7-9--------------7--(9)-7---(9)-7-|
A|--0h2---------------2-|--------------------------------------|
D|----------------------|--------------------------------------|

  D                                  Bm (Slide guitar)
e|-------------------5---5--------|--/14-14\12-10-/14-14\12-p10-7\5/7\5--|
B|--------------3--5b--5b--5^p3---|--------------------------------------|
G|------------------------------4-|--------------------------------------|
D|-2^p0---0-2/4-------------------|--------------------------------------|
A|------2-------------------------|--------------------------------------|
D|--------------------------------|--------------------------------------|

  D (not sure about last bit buried in mix but ends on A)
e|---------------------------------------------------------|
B|---------------------------------------------------------|
G|---------------------------------------------------------|
D|-/7--/5--/4p-0------/4p0---0-----------------------------|
A|---------------2p0-------2----2^-0-----------------------|
D|---------------------------------------------------------|

[Bridge]
          A
I like my truck
          D
I like my girlfriend
         E                                 A (let ring)
I like to take her out to dinner, I like a movie now and then.

[Chorus] (x2)
(D)           Bm                    D  
I love this bar,  It's my kind of place,
     E                                     A           
Just walkin through the front door, Puts a big smile on my face,
(A)             Bm                D              G 
It ain't too far,   Come as your aaaarrrrrrrreeee.
            Em    F#m   G     A            D
Hmmm, Hmmm, Hmmm, Hmmm, Hmmm, I love this bar.
Suggest correction
comments
print report bad tab
1 comment total.
0 reply
markmystrat 12 Jul 17, 2016 01:24 PM

Fun to play good job

guest
You may want to rate the tab now too:
select rating
Wanna post a correction for this tab? Suggest correction