Oops, an error
Loading. Please wait.

Dramatic Song Bass Tab

2,817 views 1 this week
no commentswrite comment
1 2 3 4 5
x 3
add to favorites
launch autoscroll
font size
0
reset
guitar tuner
Autoscroll
slow
fast
+/-
esc
set tempo
stop
Help us to improve Ultimate-Guitar.com Take our survey!
×
Difficulty
intermediate
This is repeated throughout most of the song
G:----------------------------------------|
D:----------------------------------------|
A:----------8----8-10----------11-10-8-10-|
E:-8-8-11-8---8-------8-8-11-8------------|

G:----------------------------------------|
D:----------------------------------------|
A:----------8---8-10-----------8----------|
E:-8-8-11-8---8-------8-8-11-8---11-10-11-|

The very last note is 8th fret on E
This song doesnt actually have a bass part, but i like playing parts that dont have any
bass in them, so i hope you do to.
Suggest correction
Give kudos to tab author, rate the tab!
1 2 3 4 5
comments
print report bad tab
guest
You may want to rate the tab now too:
select rating
Wanna post a correction for this tab? Suggest correction