Oops, an error
Loading. Please wait.

Tobuscus Theme tab

version 4
version 4

Whole song

Interactive

19,072 views 27 this week
3 commentsread comments
1 2 3 4 5
x 20
add to favorites
×
Save as Personal and add changes to this tab that will be seen only by you. Learn more ›
×
You can save this tab as Personal to edit and correct it or add notes. All changes will be seen only by you. Learn more »
launch autoscroll
font size
0
reset
how to read this tab
guitar tuner
edit
Autoscroll
slow
fast
+/-
esc
set tempo
stop
-------------------------------------------------------------------------------
                             Tobuscus Theme Song
-------------------------------------------------------------------------------
Tabbed by King Kazma
Email: alchemist.94@hotmail.com

I love Tobuscus and this little song is catchy as hell. 
This is the correct tab taken from a video of Toby Turner playing it 
himself, as all the other tabs I've seen have gotten the ending wrong.

Tuning: Drop D

************************************

| /   slide up
| \   slide down
| h   hammer-on
| p   pull-off
| ~   let ring

************************************

e|---------------------------------------------------------------------------|
B|---------------------------------------------------------------------------|
G|---------------------------------------------------------------------------|
D|--------0-5/7--------------3p0-------------0-5/7----2--2-2/4-4-------------|
A|-----------------7\5--5-5-------3p0-----------------3--3-3/5-5-0-----------|
D|---3/5--------0------------------------3/5--------0------------0-----------|

e|---------------------------------------------------------------------------|
B|---------------------------------------------------------------------------|
G|---------------------------------------------------------------------------|
D|-------0-5/7------------3p0----------------------3-------------------------|
A|---------------7\5--5-5-----3p0------------0-3-5----3-3h5------------------|
D|---3/5-------0-------------------3-5-0-3-5---------------------------------|

Solo
e|---10p8p5-8-5----5-6--5----5----10p8p5-8-5--8--10/12-10-8-10----------------|
B|--------------8---------8-------------------------------------------------|
G|-----------------------------7---------------------------------------------|
D|---------------------------------------------------------------------------|
A|---------------------------------------------------------------------------|
D|---------------------------------------------------------------------------|

e|---10p8p5-8-5----5-6--5---5----6-5-----------------------------------------|
B|--------------8---------8----------8-6-5----6-5----------------------------|
G|----------------------------7-------------5-----5-5h7----------------------|
D|---------------------------------------------------------------------------|
A|---------------------------------------------------------------------------|
D|---------------------------------------------------------------------------|


************************************

            
            
Suggest correction
Creating personal tab
Creating personal tab
You can edit any tab online and save it as your Personal.

You can edit, replace or remove any tab part or add personal notes – all changes will be seen only by you.

Personal tabs can be accessed anytime from any device, even offline.
Learn more »
comments
print report bad tab
3 comments total.
+2 reply
King Kazma 93 Nov 26, 2012 09:55 PM

Sorry guys, the note on the 8th fret before the 10/12 slide in the solo should be on the first string, not the second. I have no idea how to edit tabs, if it's even possible, so hopefully you see this!

+1 reply
afroking 129 Jul 05, 2013 11:24 PM

thanks this was really helpful and fun to learn

0 reply
mwowtz 10 Aug 21, 2013 03:35 AM

awesome tab mate!!

guest
You may want to rate the tab now too:
select rating
Wanna post a correction for this tab? Suggest correction