Oops, an error
Loading. Please wait.

Tobys Theme Tab

version 1
version 1

Whole song

Interactive

33,424 views 3 this week
1 commentread comment
1 2 3 4 5
excellent!
x 5
add to favorites
launch autoscroll
font size
0
reset
how to read this tab
guitar tuner
Autoscroll
slow
fast
+/-
esc
set tempo
stop
Help us to improve Ultimate-Guitar.com Take our survey!
×
Contributor
Difficulty
Tuning
intermediate
D A D G B E
   Transcribed By: Tyler Pursell
   Tab By: Tyler Pursell & Josh Manion
   Contact Info:abysslord@comcast.net (Tyler)

   Tuning: Drop D (D,A,D,G,B,e)






  E   E  E  E   E   E  E  E   
E||-----------------------------|
B||-----------------------------|
G||-----------------------------|
D||---------0--5s—7-------------|
A||-----------------------7--5--|
D||--3s--5-----------0----------|


  E  E  E  E  E  E  E  E     E   E  E  E   E   E  Q     
--------------------------|----------------------------|
--------------------------|----------------------------|
--------------------------|----------------------------|
--------------3--0--------|---------0--5s--7s-----5----|
-----5--5-----------3--0--|-----------------------3----|
--------------------------|--3s--5-------------0-------|


  E  E  E  E  E  Q    E     E   E  E  E   E   E  E  E   
-------------------------|-----------------------------|
-------------------------|-----------------------------|
-------------------------|-----------------------------|
-----2--2-----4----------|---------0--5s—7-------------|
-----3--3-----5----------|-----------------------7--5--|
-------------------------|--3s--5------------0---------|


  E  E  E  E  E  E  E  E     E  E  E  E  E  E  E  E   
--------------------------|--------------------------|
--------------------------|--------------------------|
--------------------------|--------------------------|
--------------3--0--------|--------------------------|
-----5--5-----------3--0--|-----------------0--3--5--|
--------------------------|--3--5--0--3--5-----------|


  E  E  E  E  E  Q    E     
-------------------------|
-------------------------|
-------------------------|
--3----------------------|
--------3-----5----------|
-------------------------| x3

SOLO!!

      S S  S S  S S  S  S  S S  S S S  S S  S  
E||--10-8----8----------------------------10-8----
B||-------10---10-8-10-11-10-8-10--------------10-
G||-------------------------------9---------------
D||-----------------------------------------------
A||-----------------------------------------------
D||-----------------------------------------------


  S  S S  S  S  S S  S  S  S S  S S  S S  S  
--8----8-10-12-10-8-10--------10-8----8-------------------------|
----10-----------------------------10---10-8-10-11-10-8-10------|
-----------------------------------------------------------9----|
----------------------------------------------------------------|
----------------------------------------------------------------|
----------------------------------------------------------------|


        
   S  S S                                               
--------------------------------------------------------|
--11-10-8-----------------------------------------------|
-----------10-9-------10-9------------------------------|
----------------10---------10--12-----------------------|
--------------------------------------------------------|
--------------------------------------------------------|

Duration Legend
---------------
W - whole
H - half
Q - quarter
E - 8th
S - 16th
T - 32nd
X - 64th
. - note dotted
|-n-|  - n-tuplets


Tablature Legend
----------------
L - tied note
x - dead note
g - grace note
(n) - ghost note
> - accentuded note
NH - natural harmonic
AH - artificial harmonic
TH - tapped harmonic
SH - semi harmonic
PH - pitch harmonic
h - hammer on
p - pull off
b - bend
br - bendRelease
pb - preBend
pbr - preBendRelease
brb - bendReleaseBend
\n/ - tremolo bar dip
\n - tremolo bar dive
-/n - tremolo bar Release up
/n\ - tremolo bar inverted dip
/n - tremolo bar return
-\n - tremolo bar Release down
S - shift slide
s - legato slide
/ -  slide into from below or out of upwards
\ -  slide into from above or out of downwards
~ - vibrato
W - wide vibrato
tr - trill
TP - tremolo picking
T - tapping
S - slap
P - pop
< - fade in
^ - brush up
v - brush down
Suggest correction new What's this?
You can suggest a correction to this tab. Community and Mods will review your correction and vote to approve or reject it.
comments
print report bad tab
1 comment total.
0 reply
furkanarasli 110 wrote on September 18 2011, 11:07 am

UMM U say drop D but in tab section u show it as standart tuning soo which one?

guest
You may want to rate the tab now too:
select rating
Please do not post tabs as comments. Select "correction" instead!