Oops, an error
Loading. Please wait.

Boomin Bass Tab

version 1
version 1

Whole song

Interactive

2,002 views 3 this week
1 commentread comment
1 2 3 4 5
worth learning
x 2
add to favorites
launch autoscroll
font size
0
reset
guitar tuner
Tab Pro tools
  • play this tab
  • loop segment
  • change instrument
  • show fretboard
  • metronome
Autoscroll
slow
fast
+/-
esc
set tempo
stop
Contributor
Difficulty
Tuning
novice
D G C F A D
Alrighty here you go.
Intro
G|-----------------------------------|
D|-----------------------------------|
A|-6h8-8-8-8-8-----6h8-8-8-8-8-------|
D|-------------3-1-------------8-7-6-|   X2

Verse            1st   2nd
G|---------------|-----|--------|
D|------6------6-|-8-6-|--------|
A|-8-10---8-10---|-----|-4h6----|
D|---------------|-----|----8-6-|   X2

Chorus
G|---------------------------------|
D|---------------------------------|
A|-6h8-8-8-8------6h8-8-8-8--------|
D|-----------3-1-----------8-7-6---|  X2

Verse 2
Chorus
Bridge
G|---------------------------------|
D|-----------------------9-9-8-6---|
A|-8----8--6---6--4---4----------8-|
D|---10------8------6--------------| X6

Pause and then Chorus 2                1st
G|-------------------------------------|-------|
D|-------------------------------------|-------|
A|-6h8-8-8-8--6-6h8-8-8-8--6-6h8-8-8-8-|-------|
D|-------------------------------------|-7-6-5-|

End
comments
We did not receive enough feedback on this tab! Please rate:
print report bad tab
1 2 3 4 5
1 comment total.
0 reply
daimondbass11 wrote on July 8 2010, 03:22 pm

thats waaay wrong...the intro, verse, alot is wrong with this tab...

I want to post or [tab]
guest
You may want to rate the tab now too:
select rating
Please do not post tabs as comments. Select "correction" instead!