Oops, an error
Loading. Please wait.

Boomin Tab

version 2
version 2

Whole song

Interactive

1,432 views 3 this week
no commentswrite comment
1 2 3 4 5
please rate
add to favorites
launch autoscroll
font size
0
reset
how to read this tab
guitar tuner
Autoscroll
slow
fast
+/-
esc
set tempo
stop
Help us to improve Ultimate-Guitar.com Take our survey!
×
Author
Difficulty
Tuning
intermediate
D A D G B E
DROP D!!!

Here is the tab for Boomin'. This is a very simple guitar song but the flow of it is 
is complicating for most people. Listen to the song play it over and over again and you 
get it :).


Intro

----------------------------------|
----------------------------------|
----------------------------------|   x2
-----------2-0-----------7-6-5----|
-6h8-8-8---2-0--6h8-8-8--7-6-5----|
-----------2-0-----------7-6-5----|

Verse:

*I've been around the way I've been around the block
---------------------------------------------------|
---------------------------------------------------|
---------------------------------------------------|
--------0h2-2-2---------------------5p0------------|
--------0h2-2-2---------------------5p0------------|
--------0h2-2-2---------------------5p0------------|

            ^                     ^
            |_____________________|               **Over the verses Tim Rose
                       |                          **is playing a high Em,
         Play Freely in gaps like this            **You can hear it in the
                                                  **Live version of Boomin'
                                                  **In which he uses the
                                                                 **wammy bar
*I got the keys to the city if the gates are locked...
----------------------------------------------------|
----------------------------------------------------|
----------------------------------------------------|
--------0h2-2-2--------------------7-6-5------------|
--------0h2-2-2--------------------7-6-5------------|
--------0h2-2-2--------------------7-6-5------------|


And even if you can't you can hear our praise We go *Weird thing here*
----------------------------------------------------------------------|
----------------------------------------------------------------------|
----------------------------------------------------------------------|
--------------0h2-2-2---------7--------5--------------9---9-9---------|
--------------0h2-2-2---------7--------5--------------7---7-7---------|
--------------0h2-2-2---------7--------5------------------------------|


CHORUS:                 _1stEnd ___   _2nd_End___________
                        |             |                   Boomin' out your...
----------------------------------|-||----------------------|---------------|
----------------------------------|-||----------------------|---------------|
---------------------------------0|-||----------------------|---------------|
-----------2-0-----------7-6-5----|-||--5h7-7-5-------------|---------------|
-6h8-8-8---2-0--6h8-8-8--7-6-5---0|-||--5h7-7-5-------------|-7-5-8-7-5h7p0-|
-----------2-0-----------7-6-5----|-||--5h7-7-5-------------|-----8-7-5h7p0-|

                                    ^
                                    '-Double Bar
                                         *Means repeat phrase

****FOR PEOPLE WHO DO NOT UNDERSTAND MUSIC CITATION!!!
            Play phrase once with the first ending, and then play phrase again but play 
second ending instead of the first.

Bridge:

Em                       D       C   Em                 C       B
I got portable sounds to lift us up, Portable sounds to take us higher




God bless!!
Suggest correction
Give kudos to tab author, rate the tab!
1 2 3 4 5
comments
print report bad tab
guest
You may want to rate the tab now too:
select rating
Please do not post tabs as comments. Select "correction" instead!