Oops, an error
Loading. Please wait.

Gone Tab

version 1
version 1

Whole song

10,147 views 15 this week
9 commentsread comments
1 2 3 4 5
excellent!
x 12
add to favorites
launch autoscroll
font size
0
reset
how to read this tab
guitar tuner
Tab Pro tools
  • play this tab
  • loop segment
  • change instrument
  • show fretboard
  • metronome
Autoscroll
slow
fast
+/-
esc
set tempo
stop
Contributor
TOBYMAC - GONE

STANDARD TUNING


INTRO
E-------------------------------------------------------------|
B-------------------------------------------------------------|
G-----6---X16-------------------------------------------------|
D-------6-----------------------------------------------------|
A-------------------------------------------------------------|
E-------------------------------------------------------------|


E-----------------------------------------------------------------|X1
B-----------------------------------------------------------------|
G-3-3-x-x------------6-6-x-x------------3-3-x-x------------6-6-X7-|
D-3-3-x-x--4-4--6-6--6-6-x-x--6-6--4-4--3-3-x-x--4-4--6-6--6-6----|
A-1-1-x-x--4-4--6-6--4-4-x-x--6-6--4-4--1-1-x-x--4-4--6-6--4-4----|
E----------2-2--4-4-----------4-4--2-2-----------2-2--4-4---------|
( This part is edited for a different muted sound but you dont have to mute it)

verse

"she said shes had enough"
E-------------------------------------------------------------|X4
B-------------------------------------------------------------|
G--3-X4-------------6-X4--------------------------------------|
D--3----4-X2--6-X2--6----6-X2--4-X2---------------------------|
A--1----4-----6-----4----6-----4------------------------------|
E-------2-----4----------4-----2------------------------------|
   .    .     .     .    .     . 

( on the 4th time make the last to chords unmuted)

CHORUS

E-----------------------------------------------------------------|
B-----------------------------------------------------------------|
G-3-3-x-x------------6-6-x-x------------3-3-x-x------------6-6-x-x|
D-3-3-x-x--4-4--6-6--6-6-x-x--6-6--4-4--3-3-x-x--4-4--6-6--6-6-x-x|
A-1-1-x-x--4-4--6-6--4-4-x-x--6-6--4-4--1-1-x-x--4-4--6-6--4-4-x-x|
E----------2-2--4-4-----------4-4--2-2-----------2-2--4-4---------|

E-----------------------------------------------------------------|
B-----------------------------------------------------------------|
G-----------3-3-x-x------------6-6-x-x------------3-3-x-x---------|
D-6-6--4-4--3-3-x-x--4-4--6-6--6-6-x-x--6-6--4-4--3-3-x-x--4-4----|
A-6-6--4-4--1-1-x-x--4-4--6-6--4-4-x-x--6-6--4-4--1-1-x-x--4-4----|
E-4-4--2-2-----------2-2--4-4-----------4-4--2-2-----------2-2----|

E-----------------------------------------------------------------|
B-----------------------------------------------------------------|
G------4-4----6-X4-(fades)----------------------------------------|
D-4-4--4-4--------------------------------------------------------|
A-4-4--6-6--------------------------------------------------------|
E-6-6-------------------------------------------------------------|

PRE CHORUS

"she said shes had enough" (2ND TIME)
E-------------------------------------------------------------|X4
B-------------------------------------------------------------|
G--3-X4-------------6-X4--------------------------------------|
D--3----4-X2--6-X2--6----6-X2--4-X2---------------------------|
A--1----4-----6-----4----6-----4------------------------------|
E-------2-----4----------4-----2------------------------------|
   .    .     .     .    .     . 

FISRT GUITAR
E-------------------------------------------------------------|X4
B-------9-------9-------9-------------------------------------|
G-----6---6---6---6---6---66568-------------------------------|
D-------------------------------------------------------------|
A-------------------------------------------------------------|
E-------------------------------------------------------------|

SECOND GUITAR (comes in after 2nd time)
E-------------------------------------------------------------|
B-------------------------------------------------------------|
G------------------11-11-10-10-8-8-10-10----------------------|
D--11--11--11--11---------------------------------------------|
A-------------------------------------------------------------|
E-------------------------------------------------------------|

CHORUS

E-----------------------------------------------------------------|
B-----------------------------------------------------------------|
G-3-3-x-x------------6-6-x-x------------3-3-x-x------------6-6-x-x|
D-3-3-x-x--4-4--6-6--6-6-x-x--6-6--4-4--3-3-x-x--4-4--6-6--6-6-x-x|
A-1-1-x-x--4-4--6-6--4-4-x-x--6-6--4-4--1-1-x-x--4-4--6-6--4-4-x-x|
E----------2-2--4-4-----------4-4--2-2-----------2-2--4-4---------|

E-----------------------------------------------------------------|
B-----------------------------------------------------------------|
G-----------3-3-x-x------------6-6-x-x------------3-3-x-x---------|
D-6-6--4-4--3-3-x-x--4-4--6-6--6-6-x-x--6-6--4-4--3-3-x-x--4-4----|
A-6-6--4-4--1-1-x-x--4-4--6-6--4-4-x-x--6-6--4-4--1-1-x-x--4-4----|
E-4-4--2-2-----------2-2--4-4-----------4-4--2-2-----------2-2----|

E-----------------------------------------------------------------|
B-----------------------------------------------------------------|
G------4----------------------------------------------------------|
D-4-4--4----------------------------------------------------------|
A-4-4--6----------------------------------------------------------|
E-6-6-------------------------------------------------------------|

FIRST GUITAR

E---------8-9-x4--------------------------------------------------|
B-----------------------------------------------------------------|
G-----------------------------------------------------------------|
D-----------------------------------------------------------------|
A-----------------------------------------------------------------|
E-----------------------------------------------------------------| 

SOLO
E--13-9-----------13-9--14-13----11---13-9------------13-14----13--X4(FADE)|
B------9-7-9-6-9-------9------14-----------9-7-9-6-9-------------14--------|
G--------------------------------------------------------------------------|
D--------------------------------------------------------------------------|
A--------------------------------------------------------------------------|
E--------------------------------------------------------------------------|


PRE CHORUS

"she said its gunna be alright" (3RD TIME)

FISRT GUITAR
E-------------------9--9---------13---X15------------------------|X1
B------------------9--9------------14----------------------------|
G------10--------------------------------------------------------|
D---------11-10-11-------11-10-----------------------------------|
A----------------------------------------------------------------|
E----------------------------------------------------------------|

BG GUITAR
(comes in when 13 and 14 on the 1st guitar start to play)
E-------------------------------------------------------------|
B-------------------------------------------------------------|
G-------------------------------------------------------------|
D--3-3---------6-6----------3-3---------6-6--6-6--------------|
A--1-1---4-4/6-4-4----6-4-4-1-1---4-4/6-4-4--4-4--------------|
E--------2-2/4--------4-2-2-------2-2/4-----------------------|
   . .   . . . . .    . . . . .   . . . . .  . .


CHORUS (LAST TIME)
E--------------------------------------------|X7
B--------------------------------------------|
G-3-3-x-x------------6-6-x-x-----------------|
D-3-3-x-x--4-4--6-6--6-6-x-x--6-6--4-4-------|
A-1-1-x-x--4-4--6-6--4-4-x-x--6-6--4-4-------|
E----------2-2--4-4-----------4-4--2-2-------|

(8TH TIME)
E--------------------------------------------|X1
B--------------------------------------------|
G-3-3-x-x------------6-----------------------|
D-3-3-x-x--4-4--6-6--6-----------------------|
A-1-1-x-x--4-4--6-6--4-----------------------|
E----------2-2--4-4--------------------------|

1ST GUITAR ON CHORUS
E---9----------------------------------------|X TILL END OF SONG
B----9---------------------------------------|
G--------------------------------------------|
D--------------------------------------------|
A--------------------------------------------|
E--------------------------------------------|
comments
print report bad tab
9 comments total. Showing first comments.
+2 reply
andrewscarp wrote on April 14 2006, 12:24 pm

great tab, this song is under rated

+1 reply
hasteTheDay118 wrote on April 16 2006, 05:49 pm

haha thanks

+3 reply
Toby Mac wrote on November 16 2006, 09:22 pm

Ahh, good song. One of my favorites. Good tab by the way.

I want to post or [tab]
guest
You may want to rate the tab now too:
select rating
Please do not post tabs as comments. Select "correction" instead!