Oops, an error
Loading. Please wait.

Gone Chords

version 3
version 3

Whole song

2,401 views 3 this week
no commentswrite comment
1 2 3 4 5
excellent!
x 3
add to favorites
launch autoscroll
font size
0
reset
transpose
0
reset
simplify chords
display chords
guitar tuner
Autoscroll
slow
fast
+/-
esc
set tempo
stop
Help us to improve Ultimate-Guitar.com Take our survey!
×
Author
Gone  by Tobymac

This is a very awsome song, it took me for ever to get everything correct, but i 
am pretty sure this is 100% correct
Intro:
Am7                              C/F(3fr)                 C/G      C
I told the girl that you should treat     her like a lady and
                               C/G                  C/F        
she told me all the things you did and it was shady man.
Am7                           C/F(3fr)               C/G                   
She said that what you say and what   you do are different things
       C                  
while you where tellin' me that you were checkin' out the blingy rings.

   A5(5fr)  F5  G5(3fr)   C5(3fr)  Am7   C/G   C/F(3fr)  C   E5
E:------------------------------------------------3--------------~|
B:----------------------------------1-----1-------5------1-------~|
G:---------------------------5--------------------5--------------~|
D:---7-------3-----5---------5------2-----2-------3------2----2--~|
A:---7-------3-----5---------3------------3--------------3----2--~|           
E:---5-------1-----3----------------------3----------------------~|           

this is the part after the intro and before the first verse.
A5(5fr)   F5   G5(3fr)   C5(3fr)   G5(3fr)   F5   A5(5fr)   F5   G5 C5(5fr)

Verse 1:
A5(5fr)  F5      G5(3fr)   C5(3fr)        G5(3fr)
She said   she's  had    enough.
F5        A5(5fr)                F5         G5(3fr)      C5(3fr)  G5(3fr)
{Well, it sounds to me like you're straight out of luck.
A5(5fr)      F5  G5(3fr)    C5(3fr)       G5(3fr)
And she said    she's all through.
F5            A5(5fr)      F5      G5(3fr)       C5(3fr)      G5(3fr)  F5
and life's not blowin' her kisses, thanks to you.

Chorus:
A5(5fr)                        F5              G5(3fr)
      I wanna know, wanna know what you were thinkin'.
C5(3fr)                      G5(3fr)         F5
      I can't imagine why it didn't  even sink in.
A5(5fr)                        F5                  G5(3fr)
      They say you never know what you got till it's gone.
C5(3fr)                      G5(3fr)         F5  
      {Never know what you got till it's gone.}

(repeat)

Verse 2:
A5(5fr)  F5       G5(3fr)  C5(3fr)     G5(3fr) 
She said    she's  had   enough,
F5      A5(5fr)            F5             C5(3fr)        G5(3fr)      
well it sounds to me like you're straight out of love.
A5(5fr)      F5      G5(3fr)  C5(3fr)   G5(3fr)
And she said    she's all   through,
F2             A5(5fr)     F5     G5(3fr)    C5(3fr)    G5(3fr)   F5
and life's not blowin' her kisses thanks to you.

(repeat chorus twice)

Guitar solo:
E:-8-9-8-9-8-9-8-9------------------------------------------------------|
B:----------------6-----------6---7-6----6-----------6--6-6-6-6-6-------|
G:-----------------6-----------6-----6-8--6-----------6--6-6-6-6--------|
D:------------------6-4-6-3-6---6----------6-4-6-3-6---6----------------|
A:----------------------------------------------------------------------|
E:----------------------------------------------------------------------|


Verse 3:
Am7         F5        G5(3fr)               C5(3fr)  F5
She said    it's gonna  be   all right,
       Am7                        F5          G5(3fr)        C5(3fr) G5(3fr)
'cause God made a way through the pain and He opened her eyes.
Am7         F5                      C5(3fr)  G5(3fr)  F5   E5
And she said you came crawlin' back,
       Am7                                                     C 
but   after what you did to her she wouldn't have any of that.

(repeat the chorus part as many times as needed to your satisfaction)

THE END

tabber: Robby Sheets
age:15
Suggest correction
Give kudos to tab author, rate the tab!
1 2 3 4 5
comments
print report bad tab
guest
You may want to rate the tab now too:
select rating
Please do not post tabs as comments. Select "correction" instead!