Oops, an error
Loading. Please wait.

Ignition Tab

version 2
version 2

Whole song

3,130 views 1 this week
no commentswrite comment
1 2 3 4 5
2 more votes to show rating
add to favorites
launch autoscroll
font size
0
reset
how to read this tab
guitar tuner
Autoscroll
slow
fast
+/-
esc
set tempo
stop
Help us to improve Ultimate-Guitar.com Take our survey!
×
Difficulty
Tuning
novice
D A D G B E
Drop D Tuning

Easy song for beginners, enjoy, one of my favorite songs by tMac.
I didn't like the others on the site, so I made my own.

God Bless You!

Intro/Chorus
|----------------------------------------------------------|x2
|----------------------------------------------------------|
|----------------------------------------------------------|
|-5-5--5-5--8-8-8-8-------3h5--3-3--3-3--5-5-5-5-5---------|
|-5-5--5-5--8-8-8-8---3h5------3-3--3-3--5-5-5-5-5-------3-|
|-5-5--5-5--8-8-8-8------------3-3--3-3--5-5-5-5-5---3h5---|

On 2nd time end in:
|----------------|
|----------------|
|----------------|
|--5s3-----------|
|--5s3-----------|
|--5s3-----------|
   

Verse
|-----------------------------------|Repeat as necessary
|-----------------------------------|
|-----------------------------------|
|------------2-2-2------------------|
|--2---2-----2-2-2------------------|
|--2---2-----2-2-2------------------|
             . . .

Chorus Riff x2

Verse 2: Riff 1
|------------------------|x2
|------------------------|
|-----7----------7-------|
|-7-7---7-8--7-7---7-8---|
|------------------------|
|------------------------|
  . .   .    . .   .

Verse 2: Riff 2
|-------------------------|
|-------------------------|
|-------------------------|
|-------------------------|
|-------------------------|
|--3-3-3h5-0--3-3-3h5-0---|

Chorus Riff x2

Bridge                                After 2nd Time
|--------------------------------|x2  |---------|
|--------------------------------|    |---------|
|--------------------------------|    |---------|
|-5-5-5-5--8--8s-3-3-3-3-3--5-5--|    |---------|
|-5-5-5-5--8--8s-3-3-3-3-3--5-5--|    |----3----|
|-5-5-5-5--8--8s-3-3-3-3-3--5-5--|    |-3h5-----|

Final Chorus                             After 2nd Time
|---------------------------------------|x2  |----|
|---------------------------------------|    |----|
|---------------------------------------|    |----|
|-5(x5)-8(x5)---3h5--3(x5)-5(x5)--------|    |-5b-|
|-5-----8----3h5-----3-----5--------3---|    |----|
|-5-----8------------3-----5-----3h5----|    |----|
                                      bend the string heavily
               
Repeat Final Chorus x2

2nd Time
|-------|
|-------|
|-------|
|-5-5-5-|
|-5-5-5-|
|-5-5-5-|
  . . .

Repeat Final Chorus x2


That's it, it's not perfect, i won't say it's 100%, cuz no
tab is, no matter what they say, this is just the closest and
more specific, HAVE FUN!!!

-MiK
Suggest correction
Give kudos to tab author, rate the tab!
1 2 3 4 5
comments
print report bad tab
guest
You may want to rate the tab now too:
select rating
Wanna post a correction for this tab? Suggest correction