Oops, an error
Loading. Please wait.

Im For You Bass Tab

2,415 views 3 this week
3 commentsread comments
1 2 3 4 5
please rate
add to favorites
launch autoscroll
font size
0
reset
guitar tuner
Autoscroll
slow
fast
+/-
esc
set tempo
stop
Help us to improve Ultimate-Guitar.com Take our survey!
×
Author
Difficulty
novice
I´m for you bass tab

First  4 seconds only guitar intro

Verse 1
Bass starts at 0:05
E ---------------------------------------------------------------------------------------|
A-2-2---5-5---0-0----5›------------------------------------------------------------------|
D----------------------------------------------------------------------------------------|
G----------------------------------------------------------------------------------------|

E ---------------------------------------------------------------------------------------|
A-2-2---5-5---0-0----5-5------2-2---5-5---0-0---5›---------------------------------------|
D----------------------------------------------------------------------------------------|
G----------------------------------------------------------------------------------------|

E ---------------------------------------------------------------------------------------|
A-2-2---5-5---0-0----5-5-----0-222222-5-4-0----------------------------------------------|
D----------------------------------------------------------------------------------------|
G----------------------------------------------------------------------------------------|

Chorus (0:30)
2x
E --2222------------------00------------------------------------------------------------|
A-------- 5555-0000-77------------------------------------------------------------------|
D---------------------------------------------------------------------------------------|
G---------------------------------------------------------------------------------------|

E –22-----------------------------------------------------------------------------------|
A-------- 55---00---77------------------------------------------------------------------|
D---------------------------------------------------------------------------------------|
G---------------------------------------------------------------------------------------|

E --2222--------------------------------------------------------------------------------|
A-------- 5555-0000-7777----------------------------------------------------------------|
D---------------------------------------------------------------------------------------|
G---------------------------------------------------------------------------------------|

E ---------------------------------------------------------------------------------------|
A-2-2---5-5---0-0----5-5------2-2---5-5---0-0---5----------------------------------------|
D----------------------------------------------------------------------------------------|
G----------------------------------------------------------------------------------------|

Verse 2 (1:03)
Little rif before start verse 2 which goes really fast actually, 6 notes in a second
E ---------------------------------------------------------------------------------------|
A-4h5 9750-------------------------------------------------------------------------------|
D----------------------------------------------------------------------------------------|
G----------------------------------------------------------------------------------------|

(1:04)
E ---------------------------------------------------------------------------------------|
A-2-2---5-5---0-0----55------------------------------------------------------------------|
D----------------------------------------------------------------------------------------|
G----------------------------------------------------------------------------------------|

E ---------------------------------------------------------------------------------------|
A-2-2---5-5---0-0----5-5-0-222222-5-4-0--------------------------------------------------|
D----------------------------------------------------------------------------------------|
G----------------------------------------------------------------------------------------|

Chorus
E --2222------------------00------------------------------------------------------------|
A-------- 5555-0000-77------------------------------------------------------------------|
D---------------------------------------------------------------------------------------|
G---------------------------------------------------------------------------------------|

E --2222------------------00------------------------------------------------------------|
A-------- 5555-0000-77------------------------------------------------------------------|
D---------------------------------------------------------------------------------------|
G---------------------------------------------------------------------------------------|

E –22-----------------------------------------------------------------------------------|
A-------- 55---00---77------------------------------------------------------------------|
D---------------------------------------------------------------------------------------|
G---------------------------------------------------------------------------------------|

E --2222--------------------------------------------------------------------------------|
A-------- 5555-0000-5555----------------------------------------------------------------|
D---------------------------------------------------------------------------------------|
G---------------------------------------------------------------------------------------|

Bridge (1:36)
E --------------------------------------------------------------------------------------|
A22222222-55555555------- -----2222222222222222-55555555--------------------------------|
D--------------------------44444444-----------------------------------------------------|
G---------------------------------------------------------------------------------------|

E --------22----------------------------------------------------------------------------|
A-------- ---2›-------------------------------------------------------------------------|
D444444---------------------------------------------------------------------------------|
G---------------------------------------------------------------------------------------|

Only guitar and vocals untill 2:16
E --------------------------------------------------------------------------------------|
A55555555-------- ----------------------------------------------------------------------|
D---------------------------------------------------------------------------------------|
G---------------------------------------------------------------------------------------|


Chorus 2:18
2x
E --2222------------------00------------------------------------------------------------|
A-------- 5555-0000-77------------------------------------------------------------------|
D---------------------------------------------------------------------------------------|
G---------------------------------------------------------------------------------------|

2:28
short bridge stuff with some kind of violin untill 2:34
2:34
5x
E --2222--------------------------------------------------------------------------------|
A-------- 5555-0000-7777----------------------------------------------------------------|
D---------------------------------------------------------------------------------------|
G---------------------------------------------------------------------------------------|

2:58
4x
E ---------------------------------------------------------------------------------------|
A-2-2---5-5---0-0----55------22---55---00---55-------------------------------------------|
D----------------------------------------------------------------------------------------|
G----------------------------------------------------------------------------------------|
3:38
E ---------------------------------------------------------------------------------------|
A-2--------------------------5-------------------------------------------------0---------|
D----------------------------------------------------------------------------------------|
G----------------------------------------------------------------------------------------|


This was my First bass tab, so please rate and give comments
timo_dinkelman@msn.com
Suggest correction
Give kudos to tab author, rate the tab!
1 2 3 4 5
comments
print report bad tab
3 comments total.
0 reply
daimondbass11 71 wrote on September 30 2009, 07:40 pm

E ----2h4p2----------------------------------------------------------
A-2h4-------50-------------------------------------------------------
D--------------------------------------------------------------------
G--------------------------------------------------------------------
i just play that little riff in the beginning of the 2nd verse like this...i mean its the exact same sound but i think its easier like this..lol

0 reply
strong7 10 wrote on December 30 2009, 10:34 pm

Thanks. Very good Tab.

0 reply
blackflame21 10 wrote on May 19 2010, 08:12 am

they must have played it much differently live because on Alive and Transported this sounds nothing like it...

guest
You may want to rate the tab now too:
select rating
Please do not post tabs as comments. Select "correction" instead!