Oops, an error
Loading. Please wait.

Slam Bass Tab

2,899 views 3 this week
no commentswrite comment
1 2 3 4 5
worth learning
x 1
add to favorites
launch autoscroll
font size
0
reset
guitar tuner
Tab Pro tools
  • play this tab
  • loop segment
  • change instrument
  • show fretboard
  • metronome
Autoscroll
slow
fast
+/-
esc
set tempo
stop
Contributor
Difficulty
intermediate
Standard tuning
im 100% sure of this. plz rate and giv any corrections u hav.
h=hammer on
p=pull on
*=pop
/\=slide
x=dead note
~=hold note

Verse 1
G|----------------------------------------------------------------------|
D|----------------------------------------------------------------------|
A|-------0-5-7------------------0-5-7-------------------0-5-7-----------|
E|0-3-0--------0-3-0-----0-3-0---------0-3-0-----0-3-0--------0-3-0-----|

G|----------------------------------------------------------------------|
D|----------------------------------------------------------------------|
A|-------0-5-7------------------0-5-7------------------0-5-7------------|
E|0-3-0--------4~-5~-7~--0-3-0--------0-3-0-----0-3-0--------0-3-0------|

G|--------------------------------------------|
D|--------------------------------------------|
A|-------0-5-7------------------0-5-7---------|
E|0-3-0--------0-3-0-----0-3-0-------4~-5~-7~-|

Prechorus x2

kind of a 1 da 2 da etc. thing
G|---------------------------|
D|---------------------------|
A|3-33-33-33-3---------------|
E|------------5-55-54~-5~-7~-|
on the 2nd time dont do the 457 thing.

Chorus

G|----------------------------------------------------------------|
D|----------------------------------------------------------------|
A|----7-5-----7-5-----7-5--------------7-5-----7-5-----7-5--------|
E|00-0----00-0----00-0----3~-4~-5~-00-0----00-0----00-0----5-4--3~|

Verse 2

G|-----------------------------------------------------------------------|
D|-----------------------------------------------------------------------|
A|-------0-5-7------------------0-5-7------------------0-5-7-------------|
E|0-3-0--------0-3-0-----0-3-0--------0-3-0-----0-3-0--------0-3-0-------|

G|-----------------------------------------------------------------------|
D|-----------------------------------------------------------------------|
A|-------0-5-7-------------------------------------------0-5-7-----------|
E|0-3-0--------0-3-0--4-5~-7~-0-3-0-----0-3-0-----0-3-0--------0-3-0-----|

G|---------------------|
D|---------------------|
A|-------0-5-7/99977755|
E|0-3-0----------------|

Repeat Prechorus

Chorus

G|-------------------------------------------------------------------|
D|-------------------------------------------------------------------|
A|----7-5-----7-5-----7-5--------------7-5-----7-5-----7-5---0-5-7~--|
E|00-0----00-0----00-0----3~-4~-5~-00-0----00-0----00-0--------------|

G|----------------------------------------------------------------|
D|----------------------------------------------------------------|
A|----7-5-----7-5-----7-5--------------7-5-----7-5-----7-5--------|
E|00-0----00-0----00-0----3~-4~-5~-00-0----00-0----00-0----5-4--3~|

Bridge

listen carefully for the rhythm
G|-------------------------------|
D|-----------x3-4-5p4p3--5-7-----|
A|5p4p3--3-5-----------------x3-4|
E|-------------------------------|x3

G|----------------------------------------|
D|------------x3-4-5p4p3-5p4p3-5p4p3-5p4p3|
A|5p4p3--3*h5-----------------------------|
E|----------------------------------------|

G|---------------------------|
D|---------------------------|
A|---------------------------|
E|0-----0-----0-----3~-4~-5~-|

Play the chorus till the bass drops out at about 2:26

Outro

G|------------------------------------------------------|
D|------------------------------------------------------|
A|------------------------------------------------------|
E|0000--0000--0000--3~-4~-5~-0000--0000--0000--5~-4~-3~-|
play till the end of the song
comments
We did not receive enough feedback on this tab! Please rate:
print report bad tab
1 2 3 4 5
I want to post or [tab]
guest
You may want to rate the tab now too:
select rating
Please do not post tabs as comments. Select "correction" instead!