Oops, an error
Loading. Please wait.

Aber Hier Leben Nein Danke Bass Tab

1,220 views 1 this week
no commentswrite comment
1 2 3 4 5
please rate
add to favorites
launch autoscroll
font size
0
reset
guitar tuner
Autoscroll
slow
fast
+/-
esc
set tempo
stop
Help us to improve Ultimate-Guitar.com Take our survey!
×
Author
Difficulty
Intro + Vers:

G:---------------------:
D:---------7---7-------:
A:---------------------:
E:-8-7-5--5-5-5-5-5----:

Pre-Chorus:

G:--------:
D:--------:
A:-5-5~~--:
E:--------:

Chorus:

G:---------------------:
D:---------7---7-------:
A:---------------------:
E:-8-7-5--5-5-5-5-5----:

Bridge after Chorus:

G:---------5-4-9-7-:
D:-7---------------:
A:-----7-5---------:
E:---3-------------:

That's it. Shouldn't be a problem to figure out the timings!

Cheers from Hamburg!
Semjon M.
Suggest correction
Give kudos to tab author, rate the tab!
1 2 3 4 5
comments
print report bad tab
guest
You may want to rate the tab now too:
select rating
Please do not post tabs as comments. Select "correction" instead!