Oops, an error
Loading. Please wait.

Imitationen Bass Tab

1,604 views 3 this week
no commentswrite comment
1 2 3 4 5
please rate
add to favorites
launch autoscroll
font size
0
reset
guitar tuner
Autoscroll
slow
fast
+/-
esc
set tempo
stop
Help us to improve Ultimate-Guitar.com Take our survey!
×
Author
MrMarcus 202
----------------------------------------------------------------------------
   Tocotronic - Imitationen (Bass Tab)
----------------------------------------------------------------------------
   Album: Kapitulation (2007)
----------------------------------------------------------------------------
Tabbed by Marcus Hautz (endofallthings at gmx. de)

I tried to write down the number of notes in each measure, but this is just
to get the idea of it, and not 100% accurate. Play along with the drums, 
and you'll be fine. The makeup of the song is at the end of this tab. 

Intro Instrumental
                   |                 |                 |                  | 
G|-------------------------6-8-6------------------------------------------|
D|6---6----6-6-6-9---9-9-9-------9----------------------------------------|
A|-----------------------------------7---7-----7-7-7------------9-9-9-9---|
E|----------------------------------------------------7---7-7-7-----------|
                   |                 |                 |                  | 
G|------------------------------------------------------------------------|
D|6---6----6-6-6-9---9-9-9-9-9-9-9-------------6-8-9----------------------|
A|-----------------------------------7---7----------------------9-9-9-9---|
E|----------------------------------------------------7---7-7-7-----------|

Verse Part I "Imitationen von dir ..."
                   |                 |                 |                  | 
G|------------------------------------------------------------------------|
D|6---6----6-6-6----------------------------------------------------------|
A|-----------------------------------7---7-----7-7-7------------9-9-9-9---|
E|---------------7---7-7----7-7-7-7------------------7---7-7-7------------|
                   |                 |                 |                  | 
G|------------------------------------------------------------------------|
D|6---6----6-6-6----------------------------------------------------------|
A|-----------------------------------7---7-----7-7-7------------9-9-9-9---|
E|---------------7---7-7----7-7-7-7------------------7---7-7-7------------|
                   |                 |                 |                  | 
G|------------------------------------------------------------------------|
D|6---6----6-6-6-------------------------------6-8-9----------------------|
A|-----------------------------------7---7----------------------9-9-9-9---|
E|---------------7---7-7----7-7-7-7------------------7---7-7-7------------|
                   |                 |                 |                  | 
G|------------------------------------------------------------------------|
D|6---6----6-6-6----------------------------------------------------------|
A|-----------------------------------7---7-----7-7-7------------9-9-9-9---|
E|---------------7---7-7----7-7-7-7------------------7---7-7-7------------|

"Und leise reden sie mir ein ..."
                   |                 |                 |                  | 
G|------------------------------------------------------------------------|
D|6---6----6-6-6-9---9-9----9-9-9-9---------------------------------------|
A|-----------------------------------7---7-------7-7------------9-9-9-9---|
E|---------------------------------------------------7---7-7-7------------|
                   |                 |                 |                  | 
G|------------------------------------------------------------------------|
D|6---6----6-6-6-9---9-9----9-9-9-9---------------------------------------|
A|-----------------------------------7---7-------7-7------------9-9-9-9---|
E|---------------------------------------------------7---7-7-7------------|

Chorus "Dein Gut ist mein Gut ..."
                   |                 |                 |                  | 
G|------------------------------------------------------------------------|
D|6------6------6--9------9------9----------------------------------------|
A|-----------------------------------7------7------7----------------------|
E|-----------------------------------------------------7-------7-------7--|
                   |                 |                 |                  | 
G|------------------------------------------------------------------------|
D|6------6------6--4------4------4---2---2--2--2----2--2-----2--2----2----|
A|------------------------------------------------------------------------|
E|------------------------------------------------------------------------|

Bridge Part (Snare Fill)
                   |                 |                 |                  | 
G|--------------------------8-8-8------------------------------8-8-8------|
D|6--6-6-6-6-6-6--9---9-9-9----------6--6-6-6-6-6-6--9---9-9-9------------|
A|------------------------------------------------------------------------|
E|------------------------------------------------------------------------|
                   |                 |                 |                  | 
G|--------------------------8-8-8------------------------------8-8-8------|
D|6--6-6-6-6-6-6--9---9-9-9----------6--6-6-6-6-6-6--9---9-9-9------------|
A|------------------------------------------------------------------------|
E|------------------------------------------------------------------------|

The Song is built in this pattern:

Intro 
Verse I
Chorus
Intro
Verse II
Chorus
Bridge
Intro
Verse III 
Chorus (2x)

End on G# 
Suggest correction
What's this?
You can suggest a correction to this tab. Community and Mods will review your correction and vote to approve or reject it.
comments
We did not receive enough feedback on this tab! Please rate:
print report bad tab
1 2 3 4 5
guest
You may want to rate the tab now too:
select rating
Please do not post tabs as comments. Select "correction" instead!