Oops, an error
Loading. Please wait.

In Hchsten Hhen Tab

842 views 1 this week
no commentswrite comment
1 2 3 4 5
2 more votes to show rating
add to favorites
launch autoscroll
font size
0
reset
how to read this tab
guitar tuner
Autoscroll
slow
fast
+/-
esc
set tempo
stop
Help us to improve Ultimate-Guitar.com Take our survey!
×
Author
Difficulty
novice
In höchsten Höhen
----------------------------------------

Gitarre 1
---------

Intro:
e ---------------------------------|
h ---------------------------------|
g ---------------------------------|
D -----7--7--7--7--7--7--7—-7------|  8x
A ---------------------------------|
E ---------------------------------|

Strophe:

Immer im Wechsel:
1.
e -------------------------------------------|
h -----8--8--8--8--8--8--8--8----------------|
g -----9--9--9--9--9--9--9--9----------------|  2x
D -----7--7--7--7--7--7--7--7----------------|       \
A -------------------------------------------|        \
E -------------------------------------------|         \
                                             \
                                               7x
2.    (der Rhythmus variiert)                /
e -------------------------------------------|         /
h -----0--0--0--0--0--0--0--0----------------|        /
g -----2--2--2--2--2--2--2--2----------------|  2x   /
D -----3--3--3--3--3--3--3--3----------------|
A -------------------------------------------|
E -------------------------------------------|

(insgesamt 2x das Ganze, aber beim zweiten Mal nur 5x statt 7x)

Chorus:
e ---------------------------------|
h -----6---------------------------|
g -----7—-(16x)----2---------------|  3x
D -----7-----------3--(16x)--------|
A -----5-----------3---------------|
E -----------------1---------------|

e ---------------------------------|
h ---------------------------------|
g -----4-----------2---------------|
D -----5—-(16x)----3—-(16x)--------|  2x
A -----5-----------3---------------|
E -----3-----------1---------------|


danach:
Strophe (7x)
Chorus  (2x)
Outro = Strophe (4x)

Gitarre 2
---------

Intro:
e ---------------------------------|
h -----------------8--8------------|
g -----------9--9--------9--9------|  8x
D -----7--7------------------------|
A ---------------------------------|
E ---------------------------------|
Strophe:
1.
e ---------------------------------|
h ----10-10-10-10-10-10-10-10------|
g -----9--9--9--9--9--9--9--9------|  1x
D -----7--7--7--7--7--7--7—-7------|
A ---------------------------------|
E ---------------------------------|
2.
e ---------------------------------|
h ---------------------------------|
g -----------------9--9------------|
D --------7--7--7--------7--7------|  5x (je 2x, dazwischen Pausen)
A ---------------------------------|
E ---------------------------------|
3.
e ---------------------------------|
h -----------------10--------------|
g --------------9------9-----------|  (beim 2x der 5. Wdh.)
D --------7--7------------7--7-----|
A ---------------------------------|
E ---------------------------------|
4.
e -----------------------------------------------------------------|
h ----10-10-10-10-10-10-10-10----------------5-------5-------------|
g -----9--9--9--9--9--9--9--9------------5------5-------5----------|  2x
D -----7--7--7--7--7--7--7--7---------3-----------3-------3--------|
A -----0--0--0--0--0--0--0--0--------------------------------------|
E -----------------------------------------------------------------|
[das Ganze 2x, beim zweiten Mal den 2. Teil durchgehend (ohne Pausen) und ohne 3. und 4. Teil]

Chorus:
                       (oder so ähnlich)
e -----10---------------13--------13------|
h -----10--(8x)------------13--------13---|
g -------------------14--------14---------|  3x
D ----------------------------------------|
A ----------------------------------------|
E ----------------------------------------|

e ----------------------------------------|
h --------12--------------10--------------|
g --------12--(16x)-------10--(16x)-------| 2x
D --------10--------------8---------------|
A ----------------------------------------|
E ----------------------------------------|
danach:
Strophe 4. Teil
Strophe 2. Teil ohne Pausen
Chorus (2x)
Outro = Strophe 2. Teil (4x, je 2x, durchgehend, als allerletztes 3. Teil)

Text
----

Strophe 1:	Im blick zurück entstehen Dinge
		Die dazu führen, dass wir uns finden
		Die uns mit unserem Wunsch verbinden
		Und die dann sanft ins All verschwinden

		Im Blick zurück entstehen Dinge
		Die unsere Liebe an uns binden
		Und uns zu jenen Orten bringen
		Wo die Gestirne sich verschlingen

Refrain:	Im Blick zurück entstehen die Dinge
		Im Blick nach vorne entsteht das Glück
		In höchsten Höhen, wo wir schwindeln
		In tiefsten Tiefen und zurück
		Ahhh Ahhh Ahhh Ahhh

Strophe 2:	Im Blick zurück entstehen die Dinge
		Die dazu führen, dass wir uns finden
		Dass unsere Träume uns gelingen
		Bevor sie sanft ins All verschwinden

Refrain:	Im Blick zurück entstehen die Dinge
		Im Blick nach vorne entsteht das Glück
		In höchsten Höhen, wo wir schwindeln
		In tiefsten Tiefen und zurück
		Ahhh Ahhh Ahhh Ahhh

		Im Blick zurück entstehen die Dinge
		Das Echo lenkt unser Geschick
		In höchsten Höhen, wo wir schwindeln
		In tiefsten Tiefen und zurück

This tab is from www.tocotronix.de
Suggest correction
Give kudos to tab author, rate the tab!
1 2 3 4 5
comments
print report bad tab
guest
You may want to rate the tab now too:
select rating
Wanna post a correction for this tab? Suggest correction