Oops, an error
Loading. Please wait.

Kapitulation Tab

2,989 views 9 this week
no commentswrite comment
1 2 3 4 5
please rate
add to favorites
launch autoscroll
font size
0
reset
how to read this tab
guitar tuner
Autoscroll
slow
fast
+/-
esc
set tempo
stop
Help us to improve Ultimate-Guitar.com Take our survey!
×
|---------------------------------------------------------|
|Okay, this is my first Tab, so hope you enjoy playing it |
|as much as I enjoyed writing it. I'm not quite sure at   |
|the Lead-Guitar, espeacialy at the last part, dunno. Mail|
|me for correction!                                       |
|---------------------------------------------------------|


d: Down
u: Up
b: Bend

Rhtythm-Guitar:

Strumming:

E--d---d-u---u-d-u-|
B--d---d-u---u-d-u-|
G--d---d-u---u-d-u-|
D--d---d-u---u-d-u-|
A--d---d-u---u-d-u-|
E--d---d-u---u-d-u-|

Verse:

G            Em
Und wenn Du kurz davor bist,
G           Em
kurz vor dem Fall,
G         Em
     und wenn Du denkst,
G         Em
"Fuck it all!"
G        Em
Und wenn Du nicht weißt,
      G         Em
wie soll es weitergehen

Refrain:
         G        Em
Kapitulation ohoh oh
         G        Em
Kapitulation ohoh oh
         G        Em
Kapitulation ohoh oh
        Am         C
Kapitulation ohoh oh
     G      Em     G    Em
ohoh oh

Lead-Guitar:

Intro:

E-----------------------|----------12-12-12-----|
B-----------------------|-------------------15b-|
G-----------16-14-14-14-|-14-16-14--------------|
D--12-14-12-------------|-----------------------|
A-----------------------|-----------------------|
E-----------------------|-----------------------|

Verse 1:

E------------------------------------------------------|
B------------------------------------------------------|
G------------------------------------------------------|   x3
D------------------------------------------------------|
A-------------------------------------3-3-3-2-2-2-0-0-0|
E--3-3-3-3-3-2-0-0-0-0-1-2-3-3-3-3-3-2-----------------|

Refrain:

E----------------------------|-------------------------|
B----------------------------|-------------------------|
G----------------------------|-------------------------|
D-------------------------x3-|-------------------------|
A--5---5-5-3-2-0-------------|-0-2-0-2-0---------------|
E----------------3---3-3-----|-----------3-3-3-3-3-0-3-|

Solo 1:


E--3------------------------|
B--0------------------------|
G--0------------------------|
D--0------------------------|
A--2------------------------|
E--3----5b---6-5-3-FEEDBACK-|

Verse 2

Refrain

Solo 2:
E--3----------------------------------------------12-12-12-----|
B--0-------------------------------------------------------15b-|
G--0-------------------------16-14-14-14-14-16-14--------------|
D--0----------------12-14-12-----------------------------------|
A--2-----------------------------------------------------------|
E--3----5b---6-5-3---------------------------------------------|

Verse 3

Refrain

Solo 3

E--3-------------3-3-3-|
B--0-------------3-3-3-|
G--0-------------4-4-4-|
D--0-------------5-5-5-|
A--2-------------5-5-5-|
E--3----5b---6-5-3-3-5-|

Verse 4

e--3--------3----------|
B--3--------3----------|
G--4--------4-12-12-12b|
D--5----0-2-5----------|
A--5--------5----------|
E--3--------3----------|

e--3--------3----------------|
B--3--------3----------------|
G--4--------4----------------|
D--5----0-2-5----------------|
A--5--------5-3-3-3-2-2-2-0-0|
E--3--------3----------------|

e--3--------3----------|
B--3--------3-------15b|
G--4--------4----12----|
D--5----0-2-5----------|
A--5--------5----------|
E--3--------3----------|

e--3--------3----------|
B--3--------3-------15b|
G--4--------4----12----|
D--5----0-2-5----------|
A--5--------5----------|
E--3--------3----------|

e--3--------3---------5b-3b--|
B--3--------3----------------|
G--4--------4----------------|
D--5----0-2-5----------------|
A--5--------5-3-3-3-2--------|
E--3--------3----------------|


e--3--------3----------|
B--3--------3-------15b|
G--4--------4----12----|
D--5----0-2-5----------|
A--5--------5----------|
E--3--------3----------|

e--3--------3----------------|
B--3--------3----------------|
G--4--------4----------------|
D--5----0-2-5----------------|
A--5--------5-3-3-3-2-2-2-0-0|
E--3--------3----------------|

e--3--------3----------|
B--3--------3----------|
G--4--------4-12-12-12b|
D--5----0-2-5----------|
A--5--------5----------|
E--3--------3----------|

e--3--------3-----------------|
B--3--------3-----------------|
G--4--------4-10-12-10-12b-12-|
D--5----0-2-5-----------------|
A--5--------5-----------------|
E--3--------3-----------------|

E--3-------------------------|
B--3-------------------------|
G--4--x12--------------------|
D--5-------------------------|
A--5--------3-3-3-2-2-2-0-0-0|
E--3-------------------------|

Refrain
Suggest correction
What's this?
You can suggest a correction to this tab. Community and Mods will review your correction and vote to approve or reject it.
comments
We did not receive enough feedback on this tab! Please rate:
print report bad tab
1 2 3 4 5
guest
You may want to rate the tab now too:
select rating
Please do not post tabs as comments. Select "correction" instead!