Oops, an error
Loading. Please wait.

Pure Vernunft Darf Niemals Siegen Chords

version 1
version 1

Whole song

17,083 views 33 this week
no commentswrite comment
1 2 3 4 5
x 5
add to favorites
launch autoscroll
font size
0
reset
transpose
0
reset
display chords
guitar tuner
Autoscroll
slow
fast
+/-
esc
set tempo
stop
Help us to improve Ultimate-Guitar.com Take our survey!
×
Author
Capo
2nd fret
Pure Vernunft darf niemals siegen
------------------------------------------

-Capo 2nd fret 
-look at the end of the page for the leadguitar

Intro: 		C  E  G  F  (4x)

verse 1:      C       E     G            F      
		Pure Vernunft darf niemals siegen
		Wir brauchen dringend neue Lügen
		Die uns durchs Universum leiten
		Und uns das Fest der Welt bereiten
		Die das Delirium erzwingen
		Und uns in schönsten Schlummer singen
		Die uns vor stumpfer Wahrheit warnen
		Und tiefer Qualen sich erbarmen
		Die uns in Bambuskörben wiegen
		Pure Vernunft darf niemals siegen

		(let the F ring
Refrain:        G            A           C        G
                Lalalalalalalalalalalalalalalalalala  (2x)

verse 2:	Pure Vernunft darf niemals siegen
		Wir brauchen dringend neue Lügen
		Die uns den Schatz des Wahnsinns zeigen
		Und sich danach vor uns verbeugen
		Und die zu Königen uns krönen
		Nur um uns heimlich zu verhöhnen
		Und die uns in die Ohren zischen
		Und über unsere Augen wischen
		Die die, die uns helfen wollen bekriegen
		Pure Vernunft darf niemals siegen

Refrain:	Lalalalalalalalalalalalalalalalalala  (2x)

verse 3:	Pure Vernunft darf niemals siegen
		Wir brauchen dringend neue Lügen
		Die unsere Schönheit uns erhalten
		Uns aber tief im Inneren spalten
		Viel mehr noch, die uns fragmentieren
		Und danach zärtlich uns berühren
		Und uns hinein ins Dunkel führen
		Die sich unserem Willen fügen
		Und uns wie weiche Zäune biegen
		Pure Vernunft darf niemals siegen

Refrain:	Lalalalalalalalalalalalalalalalalala  (2x)

"Bridge":	C           E       G        F
		Wir sind so leicht, dass wir fliegen  (4x)

Outro:		C  E  G  F  (4x)

	 	(let the F ring)			


Leadguitar:

Intro
e|-------------------
B|-------------------
G|-------------------
D|--12----12--9-12---    
A|-------------------
E|-------------------
         \________/ 
             3x 
e|-------------------
B|-------------------
G|-------------------
D|--12--11-9--9--9---
A|-------------------
E|-------------------

verse1 u. 2
e|----------------------------
B|----------------------------
G|----------------------------
D|--12--12-12-11--11-11-11-9--   4x
A|----------------------------
E|----------------------------

e|----------------------------------------------------
B|----------------------------------------------------
G|------------9--9-11--11-14-12---11---11-11----------
D|--12--12-12--------------------------------11--9----
A|----------------------------------------------------
E|----------------------------------------------------

e|----------------------------
B|----------------------------
G|----------------------------
D|--12--12-12-11--11-11-11-9--   2x
A|----------------------------
E|----------------------------

e|----------------------------------------------------
B|----------------------------------------------------
G|------------9--9-11--11-14-12---11---11-11----------
D|--12--12-12--------------------------------11--9----
A|----------------------------------------------------
E|----------------------------------------------------

verse 3
e|--10--10-10-9---9-9-9-7-----
B|----------------------------
G|----------------------------
D|----------------------------   4x
A|----------------------------
E|----------------------------

e|--10--10-10-12--12-14--14-17-15---14---14-14-9--7---
B|----------------------------------------------------
G|----------------------------------------------------
D|----------------------------------------------------
A|----------------------------------------------------
E|----------------------------------------------------

e|--10--10-10-9---9-9-9-7-----
B|----------------------------
G|----------------------------
D|----------------------------   2x
A|----------------------------
E|----------------------------

e|--10--10-10-12--12-14--14-17-15---14---14-14-9--7---
B|----------------------------------------------------
G|----------------------------------------------------
D|----------------------------------------------------
A|----------------------------------------------------
E|----------------------------------------------------

Outro
e|--10--10-10-9---9-9-9-7-----
B|----------------------------
G|----------------------------
D|----------------------------   8x      with Tremolo effekt! 
A|----------------------------
E|----------------------------

This tab is from www.tocotronix.de		
Suggest correction
comments
print report bad tab
guest
You may want to rate the tab now too:
select rating
Wanna post a correction for this tab? Suggest correction