Oops, an error
Loading. Please wait.

Sag Alles Ab Bass Tab

328 views 1 this week
no commentswrite comment
1 2 3 4 5
please rate
add to favorites
launch autoscroll
font size
0
reset
guitar tuner
Tab Pro tools
  • play this tab
  • loop segment
  • change instrument
  • show fretboard
  • metronome
×
Best way to learn
"Sag Alles Ab"
Autoscroll
slow
fast
+/-
esc
set tempo
stop
Contributor
Tocotronic
Sag Alles Ab
Kapitulation

tabbed by David Ebner (david583@gmx.at)



                     Sag alles ab...
G|----------------|----------------|
D|------7---------|----------------|
A|9-9-9-----7-----|----------------|  x4
E|--------------7-|--7-7-7-7-7-7-7-|



  Spreng deine...
G|----------------|----------------|
D|----------------|----------------|
A|----------------|7-7-7-7-7-7-7-7-|  x4
E|7-7-7-7-7-7-7-7-|----------------|



                     Sag alles ab...
G|----------------|----------------|
D|------7---------|----------------|
A|9-9-9-----7-----|----------------|  x4
E|--------------7-|--7-7-7-7-7-7-7-|



  Reiß deine...
G|----------------|----------------|
D|----------------|----------------|
A|----------------|7-7-7-7-7-7-7-7-|  x4
E|7-7-7-7-7-7-7-7-|----------------|



                     Sag alles ab...
G|----------------|----------------|
D|------7---------|----------------|
A|9-9-9-----7-----|----------------|  x4
E|--------------7-|--7-7-7-7-7-7-7-|



  Du musst nie wieder...
G|----------------|----------------|----------------|----------------|
D|----------------|----------------|----------------|----------------|
A|5---5---5---5---|----------------|----------------|9---9---9---9---|
E|----------------|5---5---5---5---|7---7---7---7---|----------------|



  Du wirst das...
G|----------------|----------------|----------------|----------------|
D|----------------|----------------|----------------|----------------|
A|5---5---5---5---|----------------|----------------|9---9---9---9---|
E|----------------|5---5---5---5---|7---7---7---7---|----------------|



  Du wirst dich...
G|----------------|----------------|----------------|----------------|
D|----7-------7---|----------------|----------------|----11------11--|
A|5-------5-------|----7-------7---|----9-------9---|9-------9-------|
E|----------------|5-------5-------|7-------7-------|----------------|



  Die Bäume werden...
G|----------------|----------------|----------------|----------------|
D|----7-------7---|----------------|----------------|----------------|
A|5-------5-------|----7-------7---|----9-------9---|----------------|
E|----------------|5-------5-------|7-------7-------|----------------|



                     Sag alles ab...
G|----------------|----------------|
D|------7---------|----------------|
A|9-9-9-----7-----|----------------|  x7
E|--------------7-|--7-7-7-7-7-7-7-|



  Frag nicht...
G|----------------|----------------|
D|------7---------|----------------|
A|9-9-9-----7-----|----------------|
E|--------------7~|----------------|


comments
We did not receive enough feedback on this tab! Please rate:
print report bad tab
1 2 3 4 5
I want to post or [tab]
guest
You may want to rate the tab now too:
select rating
Please do not post tabs as comments. Select "correction" instead!