Oops, an error
Loading. Please wait.

This Boy Is Tocotronic Tab

version 1
version 1

Whole song

1,674 views 6 this week
no commentswrite comment
1 2 3 4 5
please rate
add to favorites
launch autoscroll
font size
0
reset
how to read this tab
guitar tuner
Tab Pro tools
  • play this tab
  • loop segment
  • change instrument
  • show fretboard
  • metronome
×
Best way to learn
"This Boy Is Tocotronic"
Autoscroll
slow
fast
+/-
esc
set tempo
stop
This Boy is Tocotronic


Riff1:

    E                    B   A  

 e|-0----0--0--0--0--0-/-0-|-0----0--0--0--0--0--0-|
 H|-0----0--0--0--0--0-/-0-|-0----0--0--0--0--0--0-|
 G|-1----1--1--1--1--1-/-7-|-6----6--6--6--6--6--6-|
 D|-2----2--2--2--2--2-/-8-|-7----7--7--7--7--7--7-|
 A|-2----2--2--2--2--2-/-8-|-7----7--7--7--7--7--7-|
 E|-0----0--0--0--0--0-/-6-|-5----5--5--5--5--5--5-|


Riff2:

    H   

 e|-0----0--0--0--0--0--0-|-0----0--0--0--0--0--0-|
 H|-0----0--0--0--0--0--0-|-0----0--0--0--0--0--0-|
 G|-8----8--8--8--8--8--8-|-8----8--8--8--8--8--8-|
 D|-9----9--9--9--9--9--9-|-9----9--9--9--9--9--9-|
 A|-9----9--9--9--9--9--9-|-9----9--9--9--9--9--9-|
 E|-7----7--7--7--7--7--7-|-7----7--7--7--7--7--7-|


    A

 e|-0----0--0--0--0--0--0-|-0----0--0--0--0--0--0-|
 H|-0----0--0--0--0--0--0-|-0----0--0--0--0--0--0-|
 G|-6----6--6--6--6--6--6-|-6----6--6--6--6--6--6-|
 D|-7----7--7--7--7--7--7-|-7----7--7--7--7--7--7-|
 A|-7----7--7--7--7--7--7-|-7----7--7--7--7--7--7-|
 E|-5----5--5--5--5--5--5-|-5----5--5--5--5--5--5-|


Riff3:

    E                       G

 e|-0----0--0--0--0--0--0-|-0----0--0--0--0--0--0-|
 H|-0----0--0--0--0--0--0-|-0----0--0--0--0--0--0-|
 G|-1----1--1--1--1--1--1-|-4----4--4--4--4--4--4-|
 D|-2----2--2--2--2--2--2-|-5----5--5--5--5--5--5-|
 A|-2----2--2--2--2--2--2-|-5----5--5--5--5--5--5-|
 E|-0----0--0--0--0--0--0-|-3----3--3--3--3--3--3-|



Riff4:

    F#

 e|-0----0--0--0--0--0--0-|-0----0--0--0--0--0--0-|
 H|-0----0--0--0--0--0--0-|-0----0--0--0--0--0--0-|
 G|-3----3--3--3--3--3--3-|-3----3--3--3--3--3--3-|
 D|-4----4--4--4--4--4--4-|-4----4--4--4--4--4--4-|
 A|-4----4--4--4--4--4--4-|-4----4--4--4--4--4--4-|
 E|-2----2--2--2--2--2--2-|-2----2--2--2--2--2--2-|




Vorspiel : Riff1 (4x)

1.Strophe: Riff1 (11x)
           
           Ja,
           das ist jetzt
           der einzige Zweck,
           alles 
           um uns herum ist Dreck
           das wird jetzt alles 
           ausgemerzt
           ein Scherz 
           im Labyrinth 
           der Unvernunft 
           macht uns gesund


Refrain  : Riff2
           Riff3
           Riff4

           Du liegst neben mir und dann
           blicken wir uns an
           deine Augen sehen
           was meine Augen sehen

Interlude: Riff1 (4x)

2.Strophe: Riff1 (8x)
           
           This boy
           is Tocotronic 
           This boy
           is Tocotronic
           This boy
           is Tocotronic
           This boy
           is Tocotronic
            
Refrain  : Riff2
           Riff3
           Riff4 

           Riff2
           Riff3
           Riff4

           Du liegst neben mir und dann
           blicken wir uns an
           deine Augen sehen
           was meine Augen       (2x)
                 
Interlude: Riff1 (7x)

Refrain  : Riff2
           Riff3
           Riff4 

           Riff2
           Riff3
           Riff3
           Riff4

           Du liegst neben mir und dann
           blicken wir uns an
           deine Augen sehen
           was meine Augen       (2x)


Interlude:   

    E                       

 e|-0----0--0--0--0--0--0-|
 H|-0----0--0--0--0--0--0-|
 G|-1----1--1--1--1--1--1-| 
 D|-2----2--2--2--2--2--2-|
 A|-2----2--2--2--2--2--2-|
 E|-0----0--0--0--0--0--0-| (8x)



Schluss:   C         a              E  
             Was wir sehen, das ist jetzt  (6x)
comments
We did not receive enough feedback on this tab! Please rate:
print report bad tab
1 2 3 4 5
I want to post or [tab]
guest
You may want to rate the tab now too:
select rating
Please do not post tabs as comments. Select "correction" instead!