Oops, an error
Loading. Please wait.

How Far How Long Tab

1,747 views 1 this week
no commentswrite comment
1 2 3 4 5
please rate
add to favorites
launch autoscroll
font size
0
reset
how to read this tab
guitar tuner
Autoscroll
slow
fast
+/-
esc
set tempo
stop
Help us to improve Ultimate-Guitar.com Take our survey!
×
-----------------------------------------------------------------
How Far & How Long - Todd Kuffner
-----------------------------------------------------------------
Tabbed by: Todd Kuffner
Tuning: Tune down a full step: low to high DGCFAD, or just play in standard tuning if you like!

This is roughly what I'm playing.. :P

Intro/Verse riff
E|---------------------------------------------------------------|
B|---------------------------------------------------------------|
G|---------------------------------------------------------------|
D|-4h7-4---7-7-----------------------7-7-7-7---------------------|
A|-5-----5-4-4--5h9-5----9-9--7-7-5--x-x-x-4---------------------|
E|--------------7-----7--5-5--3-3-2--3-5-7-----------------------|

Verse 1:

Tell me what it is
Tell me what you want to see
And I'll try to be it
I'll try to be that thing
'Cuz your desires are like opportunities for me
To help an angel

Tell me what it is
Tell me what you need to hear
I'll find a way to mean it
I'll change the world the way you like
if only anything there was that
I could do
To melt your heart
That is hard for me

Chorus 
E|--2-------------2--------------------0-------------------------|
B|--3-------------3--------------------2-------------------------|
G|--2-------------4--------------------2-------------------------|
D|--0-------------4--------------------2-------------------------|
A|----------------2--------------------0-------------------------|
E|---------------------------------------------------------------|
       How far and   how long  must I go

E|--------------3---------------5--------------------------------|
B|--------------0---------------0--------------------------------|
G|--------------0---------------0--------------------------------|
D|--------------0---------------0--------------------------------|
A|--------------2---------------4--------------------------------|
E|--------------3---------------5--------------------------------|
     Without a taste of love fulfilled not bittersweet

E|--2-------------2--------------------0-------------------------|
B|--3-------------3--------------------2-------------------------|
G|--2-------------4--------------------2-------------------------|
D|--0-------------4--------------------2-------------------------|
A|----------------2--------------------0-------------------------|
E|---------------------------------------------------------------|
 The way I feel when  you are near is love

E|--------------3---------------5--------------------------------|
B|--------------0---------------0--------------------------------|
G|--------------0---------------0--------------------------------|
D|--------------0---------------0--------------------------------|
A|--------------2---------------4--------------------------------|
E|--------------3---------------5--------------------------------|
     And gives me reason to endure whatever comes

Bridge 1
E|---------------------------------------------------------------------|
B|---------------------------------------------------------------------|
G|-----0-----------------------------0---------------------------------|
D|-0h4---4p0--0h2-2--------------0h4---4p0-0h2--2-2h4p2p0---0----------|
A|------------0---0------0-2/4-------------0--------------0------0-2/4-|
E|-------------------0h3---------------------------------------3-------|

Verse 2:

Tell me what it is
Tell me what your soul is missing
I will summon prophets
And teachers from the past
I won't sleep until you rest
I won't stop to catch my breath
Until you're breathing easy

Chorus

Bridge 2 (play twice)

E|-14--12---------------------------------------------------------|
B|-15--14---------------------------------------------------------|
G|-14--14-------0-0-----------------------------------------------|
D|-0---0---12---7-9/11--------------------------------------------|
A|---------10-----------------------------------------------------|
E|----------------------------------------------------------------|

Bridge 3
E|-7-------------3-----------------------------------5-----------|
B|-7-------------3----------------7------------------5-----------|
G|-7-------------4----------------7------------------6-----------|
D|-9-------------5----------------7------------------7-----------|
A|-9-------------5----------------5------------------7-----------|
E|-7-------------3-----------------------------------5-----------|
        If I may    if I may help                       I will 

E|-7-------------3-----------------------------------5-----------|
B|-7-------------3----------------7------------------5-----------|
G|-7-------------4----------------7------------------6-----------|
D|-9-------------5----------------7------------------7-----------|
A|-9-------------5----------------5------------------7-----------|
E|-7-------------3-----------------------------------5-----------|
     Beside you I have          Everything I need
E|-7-------------3-----------------------------------5-----------|
B|-7-------------3----------------7------------------5-----------|
G|-7-------------4----------------7------------------6-----------|
D|-9-------------5----------------7------------------7-----------|
A|-9-------------5----------------5------------------7-----------|
E|-7-------------3-----------------------------------5-----------|
To go forward     boldly   to face     anything at all
E|-7-------------3-----------------------------------5-----------|
B|-7-------------3----------------7------------------5-----------|
G|-7-------------4----------------7------------------6-----------|
D|-9-------------5----------------7------------------7-----------|
A|-9-------------5----------------5------------------7-----------|
E|-7-------------3-----------------------------------5-----------|
And to flower    together   more than    we ever could alone

Chorus (x2)


Tablature Notation

h - hammer on 
p - pull off 
b - bend string up
r - release bend
/ - slide up
\ - slide down
v - vibrato (or ~)
t - right hand tap
x - play 'note' with heavy muting
Suggest correction
Give kudos to tab author, rate the tab!
1 2 3 4 5
comments
print report bad tab
guest
You may want to rate the tab now too:
select rating
Wanna post a correction for this tab? Suggest correction