Oops, an error
Loading. Please wait.

Alfonso Muskedunder Tab

version 1
version 1

Intro

Interactive

43 views 3 this week
no commentswrite comment
1 2 3 4 5
3 more votes to show rating
add to favorites
launch autoscroll
font size
0
reset
how to read this tab
guitar tuner
Autoscroll
slow
fast
+/-
esc
set tempo
stop
Help us to improve Ultimate-Guitar.com Take our survey!
×
Author
This is my first tab. Just figured this one out.

You will have to figure out the rythm for yourself.

https://www.youtube.com/watch?v=WB4SyLujxis


[Stave 1]

E|------------------------------------------------------------------------------|
B|------------------------------------------------------------------------------|
G|------------------------------------------------------------------------------|
D|----------12--15--14--12------12----------12----------------------------------|
A|------13------------------15----------13------13--15--12----------------------|
E|--15------------------------------15----------------------13--15--15--13--15--|


[Stave 2]

E|--------------------------------------13--15--13-------------------------------------------------------|
B|------------------------------13--15--------------15--13-----------------------------------------------|
G|----------------------12--15------------------------------15--12---------------------------------------|
D|--------------12--15----------------------------------------------15--12-------------------------------|
A|------13--15--------------------------------------------------------------15--13-----------------------|
E|--15------------------------------------------------------------------------------15--13--10--8--6--3--|
Suggest correction
Give kudos to tab author, rate the tab!
1 2 3 4 5
comments
print report bad tab
guest
You may want to rate the tab now too:
select rating
Wanna post a correction for this tab? Suggest correction