Oops, an error
Loading. Please wait.

Andate Bass

64 views 1 this week
no commentswrite comment
1 2 3 4 5
3 more votes to show rating
add to favorites
launch autoscroll
font size
0
reset
guitar tuner
Autoscroll
slow
fast
+/-
esc
set tempo
stop
E|-------|-------|-------|-------|-------|-------|-------|-------|-------|-------|-------|-------|
D|-------|-------|-------|-------|-------|-------|-------|-------|-------|-------|-------|-------|
A|---0-2-|---0-2-|---0-2-|---0-2-|---0-2-|---0-2-|---0-2-|---0-2-|---0-2-|---0-2-|---0-2-|---0-2-|
E|-3-----|-3-----|-3-----|-3-----|-3-----|-3-----|-3-----|-3-----|-3-----|-3-----|-3-----|-3-----|

G|--------------------------------|--------------------------------|
D|-------------4------------------|-------------4------------------|
A|--2--2--2--2------2--2--2--2----|--2--2--2--2------2--2--2--2----|
E|-----------------------------2--|-----------------------------2--|

G|----------------------|-----------------------------|------------------------| \
D|----------------------|-4~--------------------------|--------------------4-4-|  \
A|-2~-2-2-2-2-2-2-2-2-2-|----2~-2-2-2-2-2-2-2-2-2-----|-2~-2-2-2-2-2-2-2-2-----|   \
E|----------------------|-------------------------2-2-|------------------------|    \
                                                                                     x19
G|-------------------------|------------------------|--------------------------|    /
D|-------------------------|--------------------2-4-|--------------------------|   /
A|-2~-2-2-2-2-2-2-2-2-2----|-2~-2-2-2-2-2-2-2-2-----|-2~-2-2-2-2-2-2-2-2-2-----|  /
E|---------------------4-4-|------------------------|----------------------4-4-| /

(pausa)

G|--------------------------------|--------------------------------|
D|-------------4------------------|-------------4------------------|
A|--2--2--2--2------2--2--2--2----|--2--2--2--2------2--2--2--2----|
E|-----------------------------2--|-----------------------------2--|

G|----------------------|-----------------------------|------------------------| \
D|----------------------|-4~--------------------------|--------------------4-4-|  \
A|-2~-2-2-2-2-2-2-2-2-2-|----2~-2-2-2-2-2-2-2-2-2-----|-2~-2-2-2-2-2-2-2-2-----|   \
E|----------------------|-------------------------2-2-|------------------------|    \
                                                                                     x4
G|-------------------------|------------------------|--------------------------|    /
D|-------------------------|--------------------2-4-|--------------------------|   /
A|-2~-2-2-2-2-2-2-2-2-2----|-2~-2-2-2-2-2-2-2-2-----|-2~-2-2-2-2-2-2-2-2-2-----|  /
E|---------------------4-4-|------------------------|----------------------4-4-| /

G|--------------------------------|--------------------------------|
D|-------------4------------------|-------------4------------------|
A|--2--2--2--2------2--2--2--2----|--2--2--2--2------2--2--2--2----|
E|-----------------------------2--|-----------------------------2--|

E|---------|---------|---------|---------|---------|
D|---------|----%----|---------|----%----|---------|
A|----0-2--|---------|----0-2--|---------|----0-2--|
E|--3------|---------|--3------|---------|--3------|

(pausa)

G|----------------------|-----------------------------|------------------------| \
D|----------------------|-4~--------------------------|--------------------4-4-|  \
A|-2~-2-2-2-2-2-2-2-2-2-|----2~-2-2-2-2-2-2-2-2-2-----|-2~-2-2-2-2-2-2-2-2-----|   \
E|----------------------|-------------------------2-2-|------------------------|    \
                                                                                     x4
G|-------------------------|------------------------|--------------------------|    /
D|-------------------------|--------------------2-4-|--------------------------|   /
A|-2~-2-2-2-2-2-2-2-2-2----|-2~-2-2-2-2-2-2-2-2-----|-2~-2-2-2-2-2-2-2-2-2-----|  /
E|---------------------4-4-|------------------------|----------------------4-4-| /

G|--------------------------------|--------------------------------|
D|-------------4------------------|-------------4------------------|
A|--2--2--2--2------2--2--2--2----|--2--2--2--2------2--2--2--2----|
E|-----------------------------2--|-----------------------------2--|

                    __
                  #|oo|#
                  #|oo|#
                   /__\
                   |  |
                   |  |
                   |  |
                   |  |
                   |  |
                   |  |
                   |  |
                   |  |    cualquier consulta escriban
                   |  |    a maro_rnr@
              _    |  |
             | \   |  |
              \ \_ |  |  /\
               \   |  |_/ /
                |        /
                | [III]  |
               /   [III]  \
              /          ° \
              |   [IIII]  °|
              \   [°°°°] ° /
               \__________/
Suggest correction
Give kudos to tab author, rate the tab!
1 2 3 4 5
comments
print report bad tab
guest
Wanna post a correction for this tab? Suggest correction