Oops, an error
Loading. Please wait.
133 views 1 this week
no commentswrite comment
1 2 3 4 5
3 more votes to show rating
add to favorites
launch autoscroll
font size
0
reset
how to read this tab
guitar tuner
×
Best way to learn
"Andate"
Autoscroll
slow
fast
+/-
esc
set tempo
stop
Aca estan los solos y demas de la guitarra en el tema. Los dividi en 3 riffs ubicados en las partes que hay
que tocarlos en la letra de la cancion. Con el primero no van a tener problema, pero en el segundo y tercer
riff se les va a hacer un poco confuso. Espero que entiendan, y si no escuchen el tema para darse cuenta.

e|--3---1---0-------1---0----------|
B|--------------3-----------3---1--|
G|---------------------------------| RIFF 1
D|---------------------------------|
A|---------------------------------|
E|---------------------------------|

e|----------------------------------------------------14-16-12-14-11-12-11-9-7--|
B|--0---2---4---0-7-7-7-7-5-5-4-2-0---2---4---5-4-2-0---------------------------|
G|------------------------------------------------------------------------------| RIFF 2
D|------------------------------------------------------------------------------|
A|------------------------------------------------------------------------------|
E|------------------------------------------------------------------------------|

e|---------------------------------------------------------------------14-16-12-14-11-12-11-9-7--|
B|--0---2---4---5-4-2-0---2---2-0--9-7---5-4-5-4-2-0---2---4---5-4-2-0---------------------------|
G|----------------------2---2--------------------------------------------------------------------| RIFF 3
D|-----------------------------------------------------------------------------------------------|
A|-----------------------------------------------------------------------------------------------|
E|-----------------------------------------------------------------------------------------------|


ee oo ee oo (x4) [la tercera vez entra con el RIFF 1]

Por eso te digo yo mejor te olvido
por eso te digo sin malentendido
si no te gusta lo que digo
andate- andate-
si no te gusta lo que hago
andate- andate-
si no te gusta lo que digo ni mis amigos
tapate los oídos.
Vengo de lejos para enterarme
que no me querés
vengo de lejos para enterarme que con otro estás
por eso mi amor te digo mejor te olvido,
ay te olvido
por eso mi amor te digo mejor te olvido
escucha como lo hacen mis amigos

oh, oh, oh, andate, andate
oh, oh, oh, andate antes que te rompan el mate

Tengo que ver al doctor que me diga   |
mi amor                               |
donde quedó tu primor                 | x2
hoy quiero ver la luna como se posa   |
sobre tu balcón                       |

oh, oh, oh, andate, andate
oh, oh, oh, andate antes que te rompan el mate

Qué pasa que no pega duro?
más fuerte que no escucho nada!

Dronkit master is the master of the blaster
Dronkit master is the master of the beat

Aquí vengo y no me van a parar
este ritmo que te va a sacar
de la apatía en que ahora estás.
Todos tus muertos todos a
despabilar
y el que no se despabila se va
tener que levantar
y ahora vas a escuchar a mi
amigo Fidel
lo que te va a contar y mi
amigo Fidel
Scratchez kulcha [RIFF 2]

get my pononi, get my pononi     |
don't get my pononi              |
get my pononi, get my pononi     | x2 [la segunda vez entra con el RIFF 3]
Don't get my pononi, ofisá ofisá |
just because you drink thai tea  |
just because you drink six teas  |


Dudas, quejas, correcciones, etc. manden mail
Suggest correction
Give kudos to tab author, rate the tab!
1 2 3 4 5
comments
print report bad tab
guest
You may want to rate the tab now too:
select rating
Wanna post a correction for this tab? Suggest correction