Oops, an error
Loading. Please wait.

Dale Aborigen Bass Tab

34 views 1 this week
no commentswrite comment
1 2 3 4 5
3 more votes to show rating
add to favorites
launch autoscroll
font size
0
reset
guitar tuner
Autoscroll
slow
fast
+/-
esc
set tempo
stop
Help us to improve Ultimate-Guitar.com Take our survey!
×
Intro sin Bajo, parte la guitarra y luego la bateria


riff I	
d ------------------------------------------------
g -----------------------------------8-8-8--------
a -----7-7-7-7-7-7-7h8-7-7-7-7--------------------
e ------------------------------------------------

riff II
d.------------------------------------------------
g ------------------5--------7-8------------------
a ----------7-------------------------------------
e ------------------------------------------------

puente	x2
d.------------------------------------------------
g.----------5-7-8?7-6-5-8-------------------------
a.------7-----------------------------------------
e.------------------------------------------------

A
d.--------------------------------------------------
g.--------------------------------------------------
a.---7-78-89-910-1011-1112-1213-1314----------------
e.--------------------------------------------------

Orden

Riff I (x8)
Riff II (x2)
Puente
Riff I (x8)
Riff II (x2)
Puente
A
Punteo guitarra riff I
Riff I (x4)
Riff II
Riff I (x2)


      ojo con el riff II que en algunas pares se queda 
  pegado en sol, creo que eso es todo,si tienen alguna 
  duda o arreglo respecto a este tab. no duden en escribir
   ha y un saludo para los '¡¡TETRA BRIK!!!'
Suggest correction
Give kudos to tab author, rate the tab!
1 2 3 4 5
comments
print report bad tab
guest
You may want to rate the tab now too:
select rating
Wanna post a correction for this tab? Suggest correction