Oops, an error
Loading. Please wait.

El Camino Real Bass Tab

161 views 3 this week
no commentswrite comment
1 2 3 4 5
3 more votes to show rating
add to favorites
launch autoscroll
font size
0
reset
guitar tuner
×
Best way to learn
"El Camino Real"
Autoscroll
slow
fast
+/-
esc
set tempo
stop
Intro
|-----------------------7/9------|
|-----------------------7/9------|
|--------------------------------|
|-3---5-3-0----------------------|

Verso: toca la Base una vez y después va cambiando la última parte entre 1°, 2° y 3°.

Base                              1°      2°      3°
|--------------------------------|-------|-------|-------|
|-----5-------------5------------|---5h7-|----7--|-------|
|-5h7---7-7---7-5h7---7----------|-5-----|-5-----|--5----|
|--------------------------------|-------|-------|----7--|

Coro
|-------------------------------------------|x2
|----5-------------------5-----5-----5h7-7-7|
|5h7---7-5-----------5h7---7-5-----7--------|
|------------3---5--------------------------|

Final
|-----| varias veces
|-----|
|-----|
|-0-0-|
Suggest correction
Give kudos to tab author, rate the tab!
1 2 3 4 5
comments
print report bad tab
guest
You may want to rate the tab now too:
select rating
Wanna post a correction for this tab? Suggest correction