Oops, an error
Loading. Please wait.
62 views 1 this week
no commentswrite comment
1 2 3 4 5
3 more votes to show rating
add to favorites
launch autoscroll
font size
0
reset
how to read this tab
guitar tuner
×
Best way to learn
"Fallas"
Autoscroll
slow
fast
+/-
esc
set tempo
stop
Como andan!!! Es un temazo lastima que el chabon desafina como
loco

Intro: riff 1 X(4)

Riff 1:
  E       E4  E
e-------------------
B-----5-------------
G-1-1-4---1h2-1-----
D-2-2-2-2-------2-0-
A-2-2---------------
E-0-0---------------

------------------------------------------------------------------
Parte Cantada:

Riff 1 X(4):

Los que caminan por el pantano
Marcan aun tus fallas
Mi dolor ha envejecido
Igual que mis esperanzas

Estribillo (con Riff 2  [x4)]

C#m    G#      A    B
Marcan aun tus fallas
Marcan aun tus fallas
Marcan aun tus fallas
Marcan aun tus fallas

Riff 2

  C#m        G#           A          B
e----------------------------------------------
B----------------------------------------------
G-----6-----------------------------------8e---
D---6----6-------6------------7-----------9e---
A-4-----------6-----6------7-----7------9------
E-----------4------------5-----------7---------

e:estirar hacia abajo

------------------------------------------------------------------

Riff 1 (x4):
Vivo solo en sueño
Despierto confuso y maldito
Vivo solo en sueño
Despierto confuso y maldito

Estribillo:

Riff 2 (x4):
Marcan aun tus fallas
Marcan aun tus fallas
Marcan aun tus fallas
Marcan aun tus fallas

------------------------------------------------------------------

Riff 1 (x4):
Amo solo en sueños
La feliz sonrisa de tu rostro
Amo solo en sueños
La feliz sonrisa de tu rostro

Estribillo:

Riff 2 (4):
Marcan aun tus fallas
Marcan aun tus fallas
Marcan aun tus fallas
Marcan aun tus fallas


Intermedio:

  E       E4  E       D      E                  D
e------------------------------------------------------
B-----5------------------------------------------------
G-1-1-4---1h2-1----------------------------------------
D-2-2-2-2-------2-0---(7)----9-8---9--6h7-6-----(7)----
A-2-2-----------------(5)----7-7---7--------7-5-(5)----
E-0-0--------------------------------------------------

------------------------------------------------------------------

Los que caminan por el pantano
Marcan aun tus fallas
Mi dolor ha envejecido
Igual que mis esperanzas

Estribillo:

Marcan aun tus fallas
Marcan aun tus fallas
Marcan aun tus fallas
Marcan aun tus fallaaaas

Intermedio:

e-----------------------------------------------------
B-----5-----------------------------------------------
G-1-1-4---1h2-1---------------------------------------
D-2-2-2-2-------2-0---(7)---9-8---9--6h7-6-----(7)----
A-2-2-----------------(5)---7-7---7--------7-5-(5)----
E-0-0-------------------------------------------------

------------------------------------------------------------------
Esta parte es mas lenta y toca E5:

E5
Amo solo en sueños
E5
La feliz sonrisa de tu rostro
E5
Amo solo en sueños
E5
La feliz sonrisa de tu rostro

Estribillo:

Marcan aun tus fallas
Marcan aun tus fallas
Marcan aun tus fallas
Marcan aun tus fallas

Final
e-----------------------------
B-----------------------------
G-1-1--1h2-1------------------
D-2-2--------2-0---(7)---(9)--
A-2-2--------------(5)---(7)--
E-0-0-------------------------

Espero que les sirva!!!
Aguante la del termo B.B!!!
Suggest correction
Give kudos to tab author, rate the tab!
1 2 3 4 5
comments
print report bad tab
guest
You may want to rate the tab now too:
select rating
Wanna post a correction for this tab? Suggest correction