Oops, an error
Loading. Please wait.

Gente Que No Tab

188 views 3 this week
no commentswrite comment
1 2 3 4 5
3 more votes to show rating
add to favorites
launch autoscroll
font size
0
reset
how to read this tab
guitar tuner
×
Best way to learn
"Gente Que No"
Autoscroll
slow
fast
+/-
esc
set tempo
stop
al estilo de desarme de Bolivia

(ritmo ska punk tiempo 4 x 4 (2 de cada nota))

e------------|--------12-----
b-8-8L10-10--|-8-8L10--------
g------------|---------------
d------------|---------------   x 2
a------------|---------------
e------------|---------------

entra banda
  Am  G        Am    G
e------------|--------12-----
b-8-8L10-10--|-8-8L10--------
g------------|---------------
d------------|---------------   x 2
a------------|---------------
e------------|---------------

   Am              G  Am           G
Hay gente mentirosa, gente policía
 Am             G          Am  G
gente de mierda, gente que no
          Am G          Am   G
gente que no, gente que no.

Hay gente que te dice que tenés que trabajar
gente que te dice que tenés que estudiar
gente que te dice que tenés un problema existencial.
gente que no, gente que no, gente que no.

Tus viejos te molestan te quieren ver triunfar
te quieren bien arriba en la escala social
te llenan bien las bolas te quieren mandar
vos sólo querés mandarlos a cagar!

Gente que te escucha, gente que no
gente que te banca, gente que no
gente que te invita a su casa a dormir
gente que te deja en la calle morir.

y vos...si, vos: no mires al costado
no te hagas el pescado, no te creas que le hablo
al de al lado porque te hablo a vos, quién sos?

Que carajo estás haciendo de tu vida
qué carajo vas a hacer con vos

Querés ser policía!
querés ser policía!
querés ser policía!
querés ser policía!
queres ser policia
Yo no!!!
         Am G x 4

   Am          G
e------------|---------------
b------------|-101010-8-10---
g------------|---------------
d--777-5-7-5-|---------------   x7
a------------|---------------
e------------|---------------
   Am
e------------|
b------------|
g------------|
d--777-5-7-5-|     fin
a------------|
e------------|

Dedicado a ROLO que se fue para ser policia el muy boludo
Suggest correction
Give kudos to tab author, rate the tab!
1 2 3 4 5
comments
print report bad tab
guest
You may want to rate the tab now too:
select rating
Wanna post a correction for this tab? Suggest correction