Oops, an error
Loading. Please wait.

Hijos Nuestros Bass

44 views 1 this week
no commentswrite comment
1 2 3 4 5
3 more votes to show rating
add to favorites
launch autoscroll
font size
0
reset
guitar tuner
×
Best way to learn
"Hijos Nuestros"
Autoscroll
slow
fast
+/-
esc
set tempo
stop
 notas de bajo
      
     
cancion:   Hijo Nuestro
Artista: Todos Tus Muertos
Album:  Dale Aborigen
transcrita:Marcelo Rodriguez (marihuano_27@

          Riff A
G|------------------------|
D|------------------------|
A|----2-4--0-2--0-0-2-0---|
E|--0---------------------|

          Riff B
G|-----------------------------|
D|--2--2-2---------------------|
A|--------4-4-2--2-2-2-2-2-2-2-|
E|-----------------------------|

          Riff C
G|------------------------------------------------------|
D|------------------------------------------------------|
A|--7-7-7-7-7-7-7-7-7-7-7-7-2-2-0--0-0-0-0-0-0-0-0-0-0--|
E|------------------------------------------------------|

          Riff D
G|--------------------------------------|
D|--------------------------------------|
A|--7-7-7-7-7---------------------------|
E|---------9---------7-7-7-7-5-7--------|      

          Variacion del Riff D
G|-------------------------------------------|   
D|-------------------------------------------|
A|--7-7-7-7-------9-7------------------------|
E|---------9-9-9-9---7----------7-7-7-7-5-7--|


orden de las notas

Riff A x28
Riff B x4
Riff C x4
Riff B x4
Riff C x4
Riff B x4 
Riff D x4
 resto
Variation x4
Riff B x4
Riff C x8     


esta es la primera cancion q mando en estos dia tratare de mandar mas!!
arriba el rock chileno    'los tetra brik'
Suggest correction
Give kudos to tab author, rate the tab!
1 2 3 4 5
comments
print report bad tab
guest
You may want to rate the tab now too:
select rating
Wanna post a correction for this tab? Suggest correction