Oops, an error
Loading. Please wait.

Mate Tab

version 1
version 1

Whole song

70 views 1 this week
no commentswrite comment
1 2 3 4 5
3 more votes to show rating
add to favorites
launch autoscroll
font size
0
reset
how to read this tab
guitar tuner
×
Best way to learn
"Mate"
Autoscroll
slow
fast
+/-
esc
set tempo
stop
el intro y como la mitad de toda la cancion es puro 
bajo... pero ahi les va de todos modos

RIFF 1.. (se repite 2 veces)
gracias y alabanzas...
e|-----------------|---------------|
B|-----------------|---------------|
G|---2---------4/5-|-----2-------4-|
D|-4-2-4-2-2-2-4/5-|-4-4-2-4-2-2-4-|
A|-4-0-4-2-2-2-2/3-|-4-4-0-4-2-2-2-|
E|-2---2-0-0-0-----|-2-2---2-0-0---|

riff 2.. (se repite dos veces)
porque torturar...
e|-----------------|---------------|
B|-----------------|---------------|
G|---2---------4/5-|-----2-------4-|
D|-4-2---------4/5-|-4---2-------4-|
A|-4-0---------2/3-|-4---0-------2-|
E|-2---------------|-2-------------|

RIFF 1.. (se repite 2 veces)
gracias y alabanzas...
e|-----------------|---------------|
B|-----------------|---------------|
G|---2---------4/5-|-----2-------4-|
D|-4-2-4-2-2-2-4/5-|-4-4-2-4-2-2-4-|
A|-4-0-4-2-2-2-2/3-|-4-4-0-4-2-2-2-|
E|-2---2-0-0-0-----|-2-2---2-0-0---|

riff 2.. (se repite dos veces)
porque torturar...
e|-----------------|---------------|
B|-----------------|---------------|
G|---2---------4/5-|-----2-------4-|
D|-4-2---------4/5-|-4---2-------4-|
A|-4-0---------2/3-|-4---0-------2-|
E|-2---------------|-2-------------|

esta parte se repite 3 veces
boom shakalaka...
e|-----------------|---------------|
B|-----------------|---------------|
G|---2---------4/5-|-----2---------|
D|-4-2-4-2-2-2-4/5-|-4-4-2-4-2-----|
A|-4-0-4-2-2-2-2/3-|-4-4-0-4-2-----|
E|-2---2-0-0-0-----|-2-2---2-0-----|


y al final se dan estas notas DOS VECES

e|-----------------|---------------|
B|-----------------|---------------|
G|-----------------|---------------|
D|--2--3----4--4---|-2-2--3-3----4-|
A|--2--3----4--4---|-2-2--3-3----4-|
E|--0--1----2--2---|-0-0--1-1----2-|
Suggest correction
Give kudos to tab author, rate the tab!
1 2 3 4 5
comments
print report bad tab
guest
You may want to rate the tab now too:
select rating
Wanna post a correction for this tab? Suggest correction