Oops, an error
Loading. Please wait.

Mate Tab

version 2
version 2

Whole song

61 views 3 this week
no commentswrite comment
1 2 3 4 5
3 more votes to show rating
add to favorites
×
Save as Personal and add changes to this tab that will be seen only by you. Learn more ›
×
You can save this tab as Personal to edit and correct it or add notes. All changes will be seen only by you. Learn more »
save as personal
new!
launch autoscroll
font size
0
reset
how to read this tab
guitar tuner
Autoscroll
slow
fast
+/-
esc
set tempo
stop
(el intro se puede tocar con la guitarra o con el bajo)

INTRO
E---------------------------------------------------------------|
B---------------------------------------------------------------|
G---------------------------------------------------------------|
D---------------------------------------------------------------|
A-----------2-3-------------2-----------2-3---------------------|
E-2-5-2-0-0-----2-2-5-2-0-0---2-5-2-0-0-----2-2-5-2-0-----------|(x2)

VERSO
E---------------------------------------------------------------
B---------------------------------------------------------------
G---------------------------------------------------------------
D---------------------------------------------------------------
A-----------2-3-------------2-----------------------------------
E-2-5-2-0-0-----2-2-5-2-0-0-------------------------------------(x3/2)

CORO
E-----5---------5---------5---------5---------------------------
B-----5---------5---------5---------5---------------------------
G-----5---------5---------5---------5---------------------------
D-2-2-5-2-2-5-2-5-5---2-2-5-2-2-5-2-5---------------------------
A-2-2---2-2-5-2---5---2-2---2-2-5-2-----------------------------
E-2-2---2-2-5-2---5---2-2---2-2-5-2-----------------------------(x2)


E--------------5---------5--------------------------------------
B--------------5---------5--------------------------------------
G--------------5---------5--------------------------------------
D-4-7-9-10-2-2-5-2-2-5-2-5--------------------------------------
A-4-7-9-10-2-2---2-2-5-2----------------------------------------
E-2-5-7-8--2-2---2-2-5-2----------------------------------------(x2)TERMINA EN F#m

SEGUNDA PARTE
E--------------------------------------------------------------|
B--------------------------------------------------------------|
G--------------------------------------------------------------|
D--------------------------------------------------------------|
A-----------2-3------------------------------------------------|
E-2-5-2-0-0-----2-2-5-2-0--------------------------------------|

VERSO
E---------------------------------------------------------------
B---------------------------------------------------------------
G---------------------------------------------------------------
D---------------------------------------------------------------
A-----------2-3-------------2-----------------------------------
E-2-5-2-0-0-----2-2-5-2-0-0-------------------------------------(x5)


CORO
E-----5---------5---------5---------5---------------------------
B-----5---------5---------5---------5---------------------------
G-----5---------5---------5---------5---------------------------
D-2-2-5-2-2-5-2-5-5---2-2-5-2-2-5-2-5---------------------------
A-2-2---2-2-5-2---5---2-2---2-2-5-2-----------------------------
E-2-2---2-2-5-2---5---2-2---2-2-5-2-----------------------------(x2)


E--------------5---------5--------------------------------------
B--------------5---------5--------------------------------------
G--------------5---------5--------------------------------------
D-4-7-9-10-2-2-5-2-2-5-2-5--------------------------------------
A-4-7-9-10-2-2---2-2-5-2----------------------------------------
E-2-5-7-8--2-2---2-2-5-2----------------------------------------(x2)TERMINA EN F#m


E-----5---------5---------5---------------------------------|
B-----5---------5---------5---------------------------------|
G-----5---------5---------5---------------------------------|
D-2-2-5-2-2-5-2-5-5---2-2-5-2-2-----------------------------|
A-2-2---2-2-5-2---5---2-2---2-2-----------------------------|
E-2-2---2-2-5-2---5---2-2---2-2-----------------------------|(x4)

(INTERMEDIO)

CORO
E-----5---------5---------5---------5---------------------------
B-----5---------5---------5---------5---------------------------
G-----5---------5---------5---------5---------------------------
D-2-2-5-2-2-5-2-5-5---2-2-5-2-2-5-2-5---------------------------
A-2-2---2-2-5-2---5---2-2---2-2-5-2-----------------------------
E-2-2---2-2-5-2---5---2-2---2-2-5-2-----------------------------(x2)


E--------------5---------5--------------------------------------
B--------------5---------5--------------------------------------
G--------------5---------5--------------------------------------
D-4-7-9-10-2-2-5-2-2-5-2-5--------------------------------------
A-4-7-9-10-2-2---2-2-5-2----------------------------------------
E-2-5-7-8--2-2---2-2-5-2----------------------------------------

E--------------5----------------------------------------|
B--------------5----------------------------------------|
G--------------5----------------------------------------|
D-4-7-9-10-2-2-5---0-1-2--0-0-1-1-2--0-1-2--0-0-1-1-2---|
A-4-7-9-10-2-2-----0-1-2--0-0-1-1-2--0-1-2--0-0-1-1-2---|
E-2-5-7-8--2-2-----0-1-2--0-0-1-1-2--0-1-2--0-0-1-1-2---|


cualquier correccion mandenmela por favor.
Suggest correction
Give kudos to tab author, rate the tab!
1 2 3 4 5
comments
print report bad tab
guest
Wanna post a correction for this tab? Suggest correction