Oops, an error
Loading. Please wait.

Say It Aint So Tab

version 1
version 1

Intro

Interactive

by toe
2,664 views 9 this week
1 commentread comment
1 2 3 4 5
excellent!
x 2
add to favorites
launch autoscroll
font size
0
reset
how to read this tab
guitar tuner
Tab Pro tools
  • play this tab
  • loop segment
  • change instrument
  • show fretboard
  • metronome
Autoscroll
slow
fast
+/-
esc
set tempo
stop
Contributor
Artist: Toe
song: Say It Ain't So
Album: For Long Tomorrow
tab by:Moniitor
Capo 2. fret
Finger Picking:

e|-2------------3---3-2--|-2------------5---5-3|
B|---------2-------------|---------2-----------|
G|-------4---------------|-------4-------------|
D|-0---2--------0---0-0--|-0---2--------0---0-0|
A|---4-------------------|---4-----------------|
E|----------------3------|----------------3----|

Feedback is extremely welcome(as this is my first tab), I'm still working out the rest 
of the second guitar's parts, but this is the main guitar you hear so I'll post this for 
the moment.
comments
We did not receive enough feedback on this tab! Please rate:
print report bad tab
1 2 3 4 5
1 comment total.
0 reply
patrickjohnston wrote on April 1 2015, 09:22 pm

e|-2------------3---3-2--|-2------------5---5-3|
B|---------0-------------|---------0-----------|
G|-------2---------------|-------2-------------|
D|-0---0--------0---0-0--|-0---0--------0---0-0|
A|---2-------------------|---2-----------------|
E|----------------3------|----------------3----|

Part of this was 2 frets too high. Nice tab though

I want to post or [tab]
guest
You may want to rate the tab now too:
select rating
Please do not post tabs as comments. Select "correction" instead!