Oops, an error
Loading. Please wait.

Two Moons intro tab

version 2
version 2

Intro

Whole song

Interactive

by toe
4,643 views 27 this week
1 commentread comment
1 2 3 4 5
2 more votes to show rating
add to favorites
×
Save as Personal and add changes to this tab that will be seen only by you. Learn more ›
×
You can save this tab as Personal to edit and correct it or add notes. All changes will be seen only by you. Learn more »
launch autoscroll
font size
0
reset
how to read this tab
guitar tuner
edit
Autoscroll
slow
fast
+/-
esc
set tempo
stop
Song Title: Two Moons
Band/Artist: toe
Album: For Long Tomorrow
tuning: (D# A# F# B G# E)

legend:
h - hammer on
p - pull off
* - natural harmonics

tabbed by: himynameischan
email: himynameischan@yahoo.com

rox, para sayo ito


*note - not sure what to call this kind of tuning i just read this tuning in some 
comment in youtube :)
feel free to message me if you know what kind of tuning this is

*please rate*

intro

D#|--------|-------1-|-0-----|
A#|--3-----|--0------|---3-1-|
F#|----2-0-|----0----|-------|
B |--------|---------|-------|
G#|--------|---------|-------|
E |--------|---------|-------|

D#|------------3p0-----|--------------------| x2
A#|-------1--------1---|-----5p3------3p1---|
F#|----0----0--------0-|---------0--------0-|
B |--------------------|--------------------|
G#|--------------------|--------------------|
E |--0-----------------|--0---------0-------|

D#|------------3p0-----|--------------------|
A#|-------1--------1---|-----5p3------3p1---|
F#|----0----0--------0-|---------0--------0-|
B |--------------------|--------------------|
G#|--0-----------------|--0-----------------|
E |--------------------|------------2-------|

just repeat until...

0:52

D#|----------------|---------5h7----|-------7-5------|-----------------| x2
A#|-------8p5------|-------------5--|-----------5----|-----------------|
F#|-------5---5----|------0---------|-------------5--|-----------------|
B |----0--------7--|----0-----------|----0-----------|------7-----7*---|
G#|----------------|----------------|----------------|----5----5*---5*-|
E |--0-------------|--2-------------|--4-------------|--7--------------|


D#|----------------|---------5h7----|-------7-5------|-----------------|
A#|-------8p5------|-------------5--|-----------5----|-----------------|
F#|-------5---5----|------0---------|-------------5--|-----------------|
B |----0--------7--|----0-----------|----0-----------|------7----7*-5*-|
G#|----------------|----------------|----------------|----5-----5*-----|
E |--0-------------|--2-------------|--4-------------|--7--------------|

D#|----------------|---------5h7----|-------7-5------|-----------------|
A#|-------8p5------|-------------5--|-----------5----|-----------------|
F#|-------5---5----|------0---------|-------------5--|---------7----5--| 
B |----0--------7--|----0-----------|----0-----------|---------------7-|
G#|----------------|----------------|----------------|----5------------|
E |--0-------------|--2-------------|--4-------------|--7---7----------|

1:53

D#|----------------|---------5h7----|-------7-5------|-----------------| x2
A#|-------8p5------|-------------5--|-----------5----|-----------------|
F#|-------5---5----|------0---------|-------------5--|-----------------|
B |----0--------7--|----0-----------|----0-----------|------7-----7*---|
G#|----------------|----------------|----------------|----5----5*---5*-|
E |--0-------------|--2-------------|--4-------------|--7--------------|


D#|----------------|---------5h7----|-------7-5------|--------------7*-|
A#|-------8p5------|-------------5--|-----------5----|-----------------|
F#|-------5---5----|------0---------|-------------5--|-----------------|
B |----0--------7--|----0-----------|----0-----------|------7----7*----|
G#|----------------|----------------|----------------|----5-----5*-----|
E |--0-------------|--2-------------|--4-------------|--7--------------|

D#|----------------|---------5h7----|-------7-5------|-----------12*---|
A#|-------8p5------|-------------5--|-----------5----|-----------12*---|
F#|-------5---5----|------0---------|-------------5--|-----------12*---|
B |----0--------7--|----0-----------|----0-----------|-----------------|
G#|----------------|----------------|----------------|-----------------|
E |--0-------------|--2-------------|--4-------------|--7--9-----------|
         

i'll update this one if i get to finish the whole song thanks! :)
any corrections? please message me!, still learning this song by ear :)

            
            
Suggest correction
Creating personal tab
Creating personal tab
You can edit any tab online and save it as your Personal.

You can edit, replace or remove any tab part or add personal notes – all changes will be seen only by you.

Personal tabs can be accessed anytime from any device, even offline.
Learn more »
Give kudos to tab author, rate the tab!
1 2 3 4 5
comments
print report bad tab
1 comment total.
0 reply
tichenor988 10 May 26, 2015 09:41 AM

This tuning the B it broke my string....

guest
You may want to rate the tab now too:
select rating
Wanna post a correction for this tab? Suggest correction