Oops, an error
Loading. Please wait.

Badillac bass

1,719 views 12 this week
2 commentsread comments
1 2 3 4 5
x 3
add to favorites
×
Save as Personal and add changes to this tab that will be seen only by you. Learn more ›
×
You can save this tab as Personal to edit and correct it or add notes. All changes will be seen only by you. Learn more »
launch autoscroll
font size
0
reset
guitar tuner
edit
Autoscroll
slow
fast
+/-
esc
set tempo
stop
-------------------------------------------------------------------------------
                             Badillac - Together Pangea
-------------------------------------------------------------------------------
Tabbed by: shadowjess2000

Tuning: E Standard

Verse [0:06]
G|---------------------------------------------------------------------------|
D|---------------------------------------------------------------------------|
A|0---1-2-3---3-5-7---10-12-12-12-10--(x7)-----------------------------------|
E|---------------------------------------------------------------------------|

G|---------------------------------------------------------------------------|
D|---------------------------------------------------------------------------|
A|0---1-2-3---3-5-7-7777777---(x2)-------------------------------------------|
E|---------------------------------------------------------------------------|

              or

G|--------------------0-2-2-2-0----------------------------------------------|
D|--------------0-2----------------------------------------------------------|
A|0---1-2-3---3----------------(x7)------------------------------------------|
E|---------------------------------------------------------------------------|


G|---------------------------------------------------------------------------|
D|--------------0-2-2222222--------------------------------------------------|
A|0---1-2-3---3----------------(x2)------------------------------------------|
E|---------------------------------------------------------------------------|

Chorus [0:42]
G|---------------------------------------------------------------------------|
D|33332222-------------------------------------------------------------------|
A|--------00000000---(x3)----------------------------------------------------|
E|---------------------------------------------------------------------------|

G|---------------------------------------------------------------------------|
D|3333333322222222-----------------------------------------------------------|
A|----------------0000000000000000-------------------------------------------|
E|---------------------------------------------------------------------------|

Verse (x2)
Chorus (x1)

Final Verse
G|---------------------------------------------------------------------------|
D|---------------------------------------------------------------------------|
A|0---1-2-3---3-5-7---10-12-12-12-10--(x8)-----------------------------------|
E|---------------------------------------------------------------------------|

G|---------------------------------------------------------------------------|
D|3-2------------------------------------------------------------------------|
A|----0----------------------------------------------------------------------|
E|---------------------------------------------------------------------------|

End

| /  slide up
| \  slide down
| h  hammer-on
| p  pull-off
| ~  vibrato
| +  harmonic
| x  Mute note
===============================================================================

            
            
Suggest correction
Creating personal tab
Creating personal tab
You can edit any tab online and save it as your Personal.

You can edit, replace or remove any tab part or add personal notes – all changes will be seen only by you.

Personal tabs can be accessed anytime from any device, even offline.
Learn more »
Give kudos to tab author, rate the tab!
1 2 3 4 5
comments
print report bad tab
2 comments total.
+1 reply
Pale_Pilgrim 702 Aug 06, 2015 04:49 PM

Wanted to learn this song for a long time and been trying to figure it out. I don't think this is QUITE all the way there but it's closer than I've gotten so cheers.

+1 reply
Topas_Bass 184 Sep 15, 2015 01:03 PM

Realy cool tab! I wonder what setup i should use tough...

guest
You may want to rate the tab now too:
select rating
Wanna post a correction for this tab? Suggest correction