Oops, an error
Loading. Please wait.

Better Find Out tab

112 views 6 this week
2 commentsread comments
1 2 3 4 5
x 3
add to favorites
×
Save as Personal and add changes to this tab that will be seen only by you. Learn more ›
×
You can save this tab as Personal to edit and correct it or add notes. All changes will be seen only by you. Learn more »
launch autoscroll
font size
0
reset
how to read this tab
guitar tuner
edit
Autoscroll
slow
fast
+/-
esc
set tempo
stop
About this tab version
Contains full chords and solo. Was this info helpful? Yes No
[Verse]
   C#m              A
e|-4-4-4-4-4-4-4-4--5-5-5-5-5-5-5-5-|
B|-5-5-5-5-5-5-5-5--5-5-5-5-5-5-5-5-|
G|-6-6-6-6-6-6-6-6--6-6-6-6-6-6-6-6-| (x3)
D|-6-6-6-6-6-6-6-6--7-7-7-7-7-7-7-7-|
A|-4-4-4-4-4-4-4-4--7-7-7-7-7-7-7-7-|
E|------------------5-5-5-5-5-5-5-5-|

[Chorus]
   E        A
e|----------5-5-5-5-|
B|-9-9-9-9--5-5-5-5-|
G|-9-9-9-9--6-6-6-6-| (x3)
D|-9-9-9-9--7-7-7-7-|
A|-7-7-7-7--7-7-7-7-|
E|----------5-5-5-5-|

   C#m      E  C#m
e|-4-4-4-4-----4-|
B|-5-5-5-5--9--5-|
G|-6-6-6-6--9--6-| (x1)
D|-6-6-6-6--9--6-|
A|-4-4-4-4--7--4-|
E|---------------|

[Solo]
(Song is in A major, so solo follow the F minor pentatonic shapes with the A root)
e|-----------------------------------------------------------------------------------------|
B|-----5---5-7b-7b-5h7p5---5h7p5---5h7p5---5b-----5---5-7b7b7b-5-7b7b7b-5h7p5---5-5b5b5b5b-|
G|-4-6---6---------------6-------6-------6----4-6---6-------------------------6------------|
D|-----------------------------------------------------------------------------------------|
A|-----------------------------------------------------------------------------------------|
E|-----------------------------------------------------------------------------------------|

e|9b9p7---9b9p7---9h9p7---9h9p7---9h9p7---9h9p7---12b14p12----12b14p12----12b14p12-----12h14p12----12h14p12-9|
B|------9-------9-------9-------9-------9-------9----------14----------14-----------14----------14-----------|
G|-----------------------------------------------------------------------------------------------------------|
D|-----------------------------------------------------------------------------------------------------------|
A|-----------------------------------------------------------------------------------------------------------|
E|-----------------------------------------------------------------------------------------------------------|


************************************

| h   Hammer-on
| p   Pull-off
| b   Bend

************************************

            
            
Suggest correction
Creating personal tab
Creating personal tab
You can edit any tab online and save it as your Personal.

You can edit, replace or remove any tab part or add personal notes – all changes will be seen only by you.

Personal tabs can be accessed anytime from any device, even offline.
Learn more »
Give kudos to tab author, rate the tab!
1 2 3 4 5
comments
print report bad tab
2 comments total.
+1 reply
gabrielmanomanchinha 20 Aug 30, 2017 02:11 PM

very nice!

guest
You may want to rate the tab now too:
select rating
Wanna post a correction for this tab? Suggest correction