Oops, an error
Loading. Please wait.

I Wrote A Bible Tab

22 views 1 this week
1 commentread comment
1 2 3 4 5
2 more votes to show rating
add to favorites
launch autoscroll
font size
0
reset
how to read this tab
guitar tuner
Autoscroll
slow
fast
+/-
esc
set tempo
stop
Help us to improve Ultimate-Guitar.com Take our survey!
×
Author
Difficulty
novice
[Intro]

e|----5-4-2-0-2-------------5-4-2-0-2----------------------------------------|
B|----5-------2-2-0-2-5-----5-------2----------------------------------------|
G|----6-------2-------------6-------2-----444--------------------------------|
D|----7-------4-------------7-------4-----444--------------------------------|
A|----7-------4-------------7-------4---0-222-0------------------------------|
E|--5-5-------2-----------5-5-------2-2--------------------------------------|

e|----5-4-2-0-2-------------5-4-2-0-2---0------------------------------------|
B|----5-------2-2-0-2-5-----5-------2---0------------------------------------|
G|----6-------2-------------6-------2---2------------------------------------|
D|----7-------4-------------7-------4---2------------------------------------|
A|----7-------4-------------7-------4---1------------------------------------|
E|--5-5-------2-----------5-5-------2---0------------------------------------|


[Verse]
Since I've met you, . . .
e|----5-5---5------2-2---2---|
B|----5-5---5------2-2---2---|
G|----6-6---6------2-2---2---| 
D|----7-7---7------4-4---4---|
A|----7-7---7------4-4---4---|
E|--5-5-5---5----2-2-2---2---|
Since I've known you,
e|----5-5---5------2-2---2---0----0-0----|
B|----5-5---5------2-2---2---0----0-0----|
G|----6-6---6------2-2---2---2----2-2----| 
D|----7-7---7------4-4---4---2----2-2----|
A|----7-7---7------4-4---4---1----1-1----|
E|--5-5-5---5----2-2-2---2---0----0-0----|


[Chorus]

BA BA BAAA BWAAA BA!
e|----5-4-2-0-2-------------5-4-2-0-2----------------------------------------|
B|----5-------2-2-0-2-5-----5-------2-2-0-2-5-2r0----------------------------|
G|----6-------2-------------6-------2-------------2--------------------------|
D|----7-------4-------------7-------4----------------------------------------|
A|----7-------4-------------7-------4----------------------------------------|
E|--5-5-------2-----------5-5-------2----------------------------------------|

e|----5-4-2-0-2-------------5-4-2-0-2---0------------------------------------|
B|----5-------2-2-0-2-5-----5-------2---0------------------------------------|
G|----6-------2-------------6-------2---2------------------------------------|
D|----7-------4-------------7-------4---2------------------------------------|
A|----7-------4-------------7-------4---1------------------------------------|
E|--5-5-------2-----------5-5-------2---0------------------------------------|

[Verse]
Since I've met you, . . .
e|----5-5---5------2-2---2---|
B|----5-5---5------2-2---2---|
G|----6-6---6------2-2---2---| 
D|----7-7---7------4-4---4---|
A|----7-7---7------4-4---4---|
E|--5-5-5---5----2-2-2---2---|

e|----5-5---5------2-2---2---0----0-0----|
B|----5-5---5------2-2---2---0----0-0----|
G|----6-6---6------2-2---2---2----2-2----| 
D|----7-7---7------4-4---4---2----2-2----|
A|----7-7---7------4-4---4---1----1-1----|
E|--5-5-5---5----2-2-2---2---0----0-0----|

[Chorus]

e|----5-4-2-0-2-------------5-4-2-0-2----------------------------------------|
B|----5-------2-2-0-2-5-----5-------2-2-0-2-5-2r0----------------------------|
G|----6-------2-------------6-------2-------------2--------------------------|
D|----7-------4-------------7-------4----------------------------------------|
A|----7-------4-------------7-------4----------------------------------------|
E|--5-5-------2-----------5-5-------2----------------------------------------|

e|----5-4-2-0-2-------------5-4-2-0-2---0------------------------------------|
B|----5-------2-2-0-2-5-----5-------2---0------------------------------------|
G|----6-------2-------------6-------2---2------------------------------------|
D|----7-------4-------------7-------4---2------------------------------------|
A|----7-------4-------------7-------4---1------------------------------------|
E|--5-5-------2-----------5-5-------2---0------------------------------------|


[Bridge]

e|-5---5-5----2---2-2-----|
B|-7---7-7----4---4-4-----|
G|-7---7-7----4---4-4-----|
D|-7---7-7----4---4-4-----|
A|-5---5-5----2---2-2-----|
E|------------------------|

e|-5---5-5----2---2-2----7---7-7--7---7-7-7-7--------------------------------|
B|-7---7-7----4---4-4----9---9-9--9---9-9-9-9--------------------------------|
G|-7---7-7----4---4-4----9---9-9--9---7-7-7-7--------------------------------|
D|-7---7-7----4---4-4----9---9-9--9---9-9-9-9--------------------------------|
A|-5---5-5----2---2-2----7---7-7--7---7-7-7-7--------------------------------|
E|---------------------------------------------------------------------------|

[Outro]

e|----5-4-2-0-2-------------5-4-2-0-2----------------------------------------|
B|----5-------2-2-0-2-5-----5-------2-2-0-2-5-2r0----------------------------|
G|----6-------2-------------6-------2-------------2--------------------------|
D|----7-------4-------------7-------4----------------------------------------|
A|----7-------4-------------7-------4----------------------------------------|
E|--5-5-------2-----------5-5-------2----------------------------------------|

e|----5-4-2-0-2-------------5-4-2-0-2---4---5--------------------------------|
B|----5-------2-2-0-2-5-----5-------2----------------------------------------|
G|----6-------2-------------6-------2----------------------------------------|
D|----7-------4-------------7-------4----------------------------------------|
A|----7-------4-------------7-------4----------------------------------------|
E|--5-5-------2-----------5-5-------2----------------------------------------|



************************************
 
| r  Release 

************************************ 
Suggest correction
Give kudos to tab author, rate the tab!
1 2 3 4 5
comments
print report bad tab
1 comment total.
0 reply
raphaelf328 10 Nov 08, 2016 02:25 AM

Thanks for the tab! Really well done!

guest
You may want to rate the tab now too:
select rating
Wanna post a correction for this tab? Suggest correction