Oops, an error
Loading. Please wait.

No Feeling Tab

43 views 3 this week
no commentswrite comment
1 2 3 4 5
3 more votes to show rating
add to favorites
launch autoscroll
font size
0
reset
how to read this tab
guitar tuner
Autoscroll
slow
fast
+/-
esc
set tempo
stop
Help us to improve Ultimate-Guitar.com Take our survey!
×
Author
Difficulty
intermediate
Tabbed by J

[Verse]

Problems That I could't get on
AAAnd problems that I couldn't make good

e|----------------------------------------------------------------|
B|----------------------------------------------------------------|
G|----------------------------------------------------------------|
D|----------------------------------------------------------------|
A|----------------------------------------------------------------|
E|2-0-2-0-2-0-2-0-2-0-2-0-2-0-2-0-5-0-5-0-5-0-5-0-5-0-5-0-5-0-5-0-|

(Lead part that plays during second verse)
e|--------------------------------------------------------------------------------|
B|--------------------------------------------------------------------------------|
G|9b-9b-11b-11-9h-11p-9h-11p-11-11-11-11-9-7-11b-11-9h-11p-9h-11p-11-11-11-11-9-7-|
D|--------------------------------------------------------------------------------|
A|--------------------------------------------------------------------------------|
E|--------------------------------------------------------------------------------|

e|-------------------------------------------|
B|-------------------------------------------|
G|11-11-9-9-7-7-6-6-6-6-11-11-9-9-7-7-6-6-6-6|
D|-------------------------------------------|
A|-------------------------------------------|
E|-------------------------------------------|

Won't someone call Momma
Some marijuana 
Someone call Mamma
Someones gonna

e|-x-----5-5-5-5-|
B|-7-----5-5-5-5-|
G|-7-----6-6-6-6-|
D|-7-----7-7-7-7-|
A|-5-----7-7-7-7-|
E|-x-----5-5-5-5-|

It's alright it's okay I won't crack cause I

e|-x-x-x-x-x-x-x-x-|
B|-9-9-9-9-9-9-9-9-|
G|-9-9-9-9-9-9-9-9-|
D|-9-9-9-9-9-9-9-9-|
A|-7-7-7-7-7-7-7-7-|
E|-x-x-x-x-x-x-x-x-|

[Chorus]

Ain't got no feeling at all
Ain't got no feeling at all

e|-5-5-5-5--2-2-2-2-|
B|-5-5-5-5--2-2-2-2-|
G|-6-6-6-6--3-3-3-3-|
D|-7-7-7-7--4-4-4-4-|
A|-7-7-7-7--4-4-4-4-|
E|-5-5-5-5--2-2-2-2-|

I got no feeling
I got no feeling

e|-x-----5-5-5-5-|
B|-7-----5-5-5-5-|
G|-7-----6-6-6-6-|
D|-7-----7-7-7-7-|
A|-5-----7-7-7-7-|
E|-x-----5-5-5-5-|

Got no feeling
Got no feeling

e|-x-5-x-5-x-5-x-5--2-2-2-2-|
B|-7-5-7-5-7-5-7-5--2-2-2-2-|
G|-7-6-7-6-7-6-7-6--3-3-3-3-|
D|-7-7-7-7-7-7-7-7--4-4-4-4-|
A|-5-7-5-7-5-7-5-7--4-4-4-4-|
E|-x-5-x-5-x-5-x-5--2-2-2-2-|


************************************

| x   Dead note
| g   Grace note
| (n) Ghost note
| h   Hammer-on
| p   Pull-off
| r   Release
| >   Accented note
| t   Tapping
| b   Bend
| br  Bend release
| pb  Pre-bend
| pbr Pre-bend release
| /   Slide up
| \   Slide down
| ~   Vibrato
| s   Slap
| P   Pop
| PM  Palm mute
| TR  Trill
| N   Tremolo

************************************
Suggest correction
Give kudos to tab author, rate the tab!
1 2 3 4 5
comments
print report bad tab
guest
You may want to rate the tab now too:
select rating
Wanna post a correction for this tab? Suggest correction