Oops, an error
Loading. Please wait.

Sick Shit tab

version 1
version 1

Whole song

  • Must have a vibrato arm for solo.
301 views 27 this week
no commentswrite comment
1 2 3 4 5
3 more votes to show rating
add to favorites
×
Save as Personal and add changes to this tab that will be seen only by you. Learn more ›
×
You can save this tab as Personal to edit and correct it or add notes. All changes will be seen only by you. Learn more »
launch autoscroll
font size
0
reset
how to read this tab
guitar tuner
edit
Autoscroll
slow
fast
+/-
esc
set tempo
stop
About this tab version
Must have a vibrato arm for solo. Was this info helpful? Yes No
Tabbed by J

[Intro]
(All downstrokes except G)
   C      B    E    G
e|-8--8---7-7--0-0--3-3-|
B|-8--8---7-7--0-0--3-3-|
G|-9--9---8-8--1-1--4-4-| (x2)
D|-10-10--9-9--2-2--5-5-|
A|-10-10--9-9--2-2--5-5-|
E|-8--8---7-7--0-0--3-3-|

(transiton bit)
   G      A    E
e|-3-3-3--5-3--0-0-0-0-|
B|-3-3-3--5-3--0-0-0-0-|
G|-4-4-4--6-4--1-1-1-1-| (x1)
D|-5-5-5--7-5--2-2-2-2-|
A|-5-5-5--7-5--2-2-2-2-|
E|-3-3-3--5-3--0-0-0-0-|

[Verse]
(Now strummed up and down)
   C      B    E    G
e|-8--8---7-7--0-0--3-3-|
B|-8--8---7-7--0-0--3-3-|
G|-9--9---8-8--1-1--4-4-| (x4)
D|-10-10--9-9--2-2--5-5-|
A|-10-10--9-9--2-2--5-5-|
E|-8--8---7-7--0-0--3-3-|

(transiton bit)
   G      A    E
e|-3-3-3--5-3--0-0-0-0-|
B|-3-3-3--5-3--0-0-0-0-|
G|-4-4-4--6-4--1-1-1-1-| (x1)
D|-5-5-5--7-5--2-2-2-2-|
A|-5-5-5--7-5--2-2-2-2-|
E|-3-3-3--5-3--0-0-0-0-|

[Chorus]
(Rhythm)
(Now strummed up and down)
   C      B    E    G
e|-8--8---7-7--0-0--3-3-|
B|-8--8---7-7--0-0--3-3-|
G|-9--9---8-8--1-1--4-4-| (x4)
D|-10-10--9-9--2-2--5-5-|
A|-10-10--9-9--2-2--5-5-|
E|-8--8---7-7--0-0--3-3-|

(transiton bit)
   G      A    E
e|-3-3-3--5-3--0-0-0-0-|
B|-3-3-3--5-3--0-0-0-0-|
G|-4-4-4--6-4--1-1-1-1-| (x1)
D|-5-5-5--7-5--2-2-2-2-|
A|-5-5-5--7-5--2-2-2-2-|
E|-3-3-3--5-3--0-0-0-0-|

(Lead Guitar)
e|--------------------------------------|
B|--------------------------------------|
G|-------9--------8--------4--------1---| (x4)
D|-10-10-8-8--9-9-9-9--5-5-5-5--2-2-2-2-|
A|-10-10------9-9------5-5------2-2-----|
E|-8--8-------7-7------3-3------0-0-----|

[Solo]
(Rhythm)
   C      B    E    G
e|-8--8---7-7--0-0--3-3-|
B|-8--8---7-7--0-0--3-3-|
G|-9--9---8-8--1-1--4-4-| (x8)
D|-10-10--9-9--2-2--5-5-|
A|-10-10--9-9--2-2--5-5-|
E|-8--8---7-7--0-0--3-3-|

(Lead Guitar - must have a vibrato arm, the specific times when it is used the most is marked with the vibrato 
symbol, but he abuses the heck out of it for much of the solo, song is in C major so it uses the A minor 
pentatonic shapes)

e|------------------------------------------------------------------------------------------------------|
B|---------------------------17----17-20-20b-17h20p17---------------------------------------------------|
G|-19b-19b-19br--------19-19----19--------------------19--19h21p19-------------------------------17-19b-|
D|--------------21~-21---------------------------------------------21-21-------------------17-19--------|
A|-----------------------------------------------------------------------19-19-19-19-17-19--------------|
E|------------------------------------------------------------------------------------------------------|

e|----------------------------------17b-17b-17b-17p15----15-------19b-19b-19-17----|
B|----------------17----17----17-20-------------------17----17-17---------------19-|
G|----------19-21----19----19------------------------------------------------------|
D|-17----17------------------------------------------------------------------------|
A|----19---------------------------------------------------------------------------|
E|---------------------------------------------------------------------------------|

e|--------------------------------------------------------------------------|
B|-20p17--------------------------------------------------------------------|
G|-------19-21p19----19p17----17p14----14p12----------------------12-14b14b-|
D|----------------19-------19-------17-------14-17p14----14-12-14-----------|
A|----------------------------------------------------17--------------------|
E|--------------------------------------------------------------------------|

e|-------------------------------------------------------------------------------------------------|
B|---3-3-3-3----------0-3-3-3-3-------17h20p17----17h20p17----17h20p17----17h20p17----14b14b14b-13-|
G|-2~--------2-0---2~-----------2-0------------19----------19----------19----------19--------------|
D|---------------2------------------2--------------------------------------------------------------|
A|-------------------------------------------------------------------------------------------------|
E|-------------------------------------------------------------------------------------------------|

(Right before the song goes back into the last verse lead plays this with rythym for a bit)
e|-8--8--7-7---------|
B|-8--8--7-7---------|
G|-9--9--8-8--2~-0---| (x2)
D|-10-10-9-9-------2-|
A|-10-10-9-9---------|
E|-8--8--7-7---------|

************************************

| h   Hammer-on
| p   Pull-off
| b   Bend
| br  Bend release
| ~   Vibrato

************************************

            
            
Suggest correction
Creating personal tab
Creating personal tab
You can edit any tab online and save it as your Personal.

You can edit, replace or remove any tab part or add personal notes – all changes will be seen only by you.

Personal tabs can be accessed anytime from any device, even offline.
Learn more »
Give kudos to tab author, rate the tab!
1 2 3 4 5
comments
print report bad tab
guest
You may want to rate the tab now too:
select rating
Wanna post a correction for this tab? Suggest correction