Oops, an error
Loading. Please wait.

Alien tab

version 2
version 2

Whole song

Interactive

4,489 views 3 this week
no commentswrite comment
1 2 3 4 5
1 last vote to show rating
add to favorites
×
Save as Personal and add changes to this tab that will be seen only by you. Learn more ›
×
You can save this tab as Personal to edit and correct it or add notes. All changes will be seen only by you. Learn more »
launch autoscroll
font size
0
reset
how to read this tab
guitar tuner
edit
Autoscroll
slow
fast
+/-
esc
set tempo
stop
Author
Alien    By   Tokio Hotel   (live version)

Tabbed by lMxD15l . 
Colaboration by thjunmj .

the tab, is 100% correct.
We are fans of Tokio Hotel from Peru in south-america.

Intro: (P.M.)
e|-----------------------------------------------------------------------|
B|-----------------------------------------------------------------------|
G|-------3-3-3------------5-5-5------------6-6-6-5-5---------------6-5---|
D|-3-3-3-------3-3--3-3-3-------3-3--4-4-4------------4-4-4--6-6-6-------|
A|-----------------------------------------------------------------------|
E|-----------------------------------------------------------------------|

Verse:   (P.M.)
e|-----------------------------------------------------------------------|
B|-----------------------------------------------------------------------|
G|-------3-3-3------------5-5-5------------6-6-6-5-5---------------6-5---|
D|-3-3-3-------3-3--3-3-3-------3-3--4-4-4------------4-4-4--6-6-6-------|x2
A|-----------------------------------------------------------------------|
E|-----------------------------------------------------------------------|

Pre Chorus:

Guitar 1:
e|----------------------------------------|
B|----------------------------------------|
G|----------------------------------------|
D|--44444444444---66666666666-------------|
A|--44444444444---66666666666-------------|
E|--22222222222---44444444444-------------|

Guitar 2
e|----------------------------------------|
B|----------------------------------------|
G|--------------------------6666-5-3------|
D|--------------------------xxxx-x-x------|
A|--------------------------4444-3-1------|
E|----------------------------------------|

Chorus:

Guitar 1
e|--------------------------------------------------|
B|--------------------------------------------------|
G|-33333333333-------------33333--------------------|
D|-33333333333-44444-33333-33333-33333-44444-66666--|
A|-11111111111-44444-33333-11111-33333-44444-66666--|
E|-------------22222-11111-------11111-22222-44444--|

Guitar 2
e|-------------------------|      |----------------------------|  
B|-------------------------|      |----------------------------|
G|--------6666---13131313--|      |--------------6666-5-3------|
D|--------xxxx----x-x-x-x--|x6    |--------------xxxx-x-x------|
A|--------4444---11111111--|      |--------------4444-3-1------|
E|-------------------------|      |----------------------------|

Verse: (P.M.)
e|-----------------------------------------------------------------------|
B|-----------------------------------------------------------------------|
G|-------3-3-3------------5-5-5------------6-6-6-5-5---------------6-5---|
D|-3-3-3-------3-3--3-3-3-------3-3--4-4-4------------4-4-4--6-6-6-------|x2
A|-----------------------------------------------------------------------|
E|-----------------------------------------------------------------------|

Pre Chorus:

Guitar 1:
e|------------------------------|
B|------------------------------|
G|------------------------------|
D|-4444x-4444x-44x--6666x-6666--|
A|-4444x-4444x-44x--6666x-6666--|
E|-2222x-2222x-22x--4444x-4444--|

Guitar 2
e|------------------------------------|
B|------------------------------------|
G|--------------------------6666-5-3--|
D|--------------------------xxxx-x-x--|
A|--------------------------4444-3-1--|
E|------------------------------------|

Chorus:

Guitar 1:
e|--------------------------------------------------|
B|--------------------------------------------------|
G|-33333333333-------------33333--------------------|
D|-33333333333-44444-33333-33333-33333-44444-66666--| x2
A|-11111111111-44444-33333-11111-33333-44444-66666--|
E|-------------22222-11111-------11111-22222-44444--|

Guitar 2:       
              A                        B         
e|-------------------------|   |----------------|  
B|-------------------------|   |----------------|
G|--------6666---13131313--|   |-----6666-5-3---|
D|--------xxxx----x-x-x-x--|x6 |-----xxxx-x-x---| A n’ B :  x2
A|--------4444---11111111--|   |-----4444-3-1---|
E|-------------------------|   |----------------|

Bridge:

Guitar 1:
e|---------------------------------------------------------|
B|---------------------------------------------------------|
G|-3x3x3x3x3x3-------------3x3x3---------------------------|
D|-3x3x3x3x3x3-44444-33333-3x3x3-3x3x3-44444-66666---------| x3
A|-1x1x1x1x1x1-44444-33333-1x1x1-3x3x3-44444-66666---------|
E|-------------22222-11111-------1x1x1-22222-44444---------|

Guitar 2:
e|---------------------------------------------------------|
B|---------------------------------------------------------|
G|-----------------------------------------------6666-5-3--|
D|-----------------------------------------------xxxx-x-x--|x3
A|-----------------------------------------------4444-3-1--|
E|---------------------------------------------------------|


----------Not guitar here-----------


Guitar 2
e|----------------|
B|----------------|
G|------6666-5-3--|
D|------xxxx-x-x--|
A|------4444-3-1--|
E|----------------|

Chorus:

Guitar 1:
e|--------------------------------------------------|
B|--------------------------------------------------|
G|-33333333333-------------33333--------------------|
D|-33333333333-44444-33333-33333-33333-44444-66666--| x2
A|-11111111111-44444-33333-11111-33333-44444-66666--|
E|-------------22222-11111-------11111-22222-44444--|

Guitar 2:       
              A                        B         
e|-------------------------|   |----------------|  
B|-------------------------|   |----------------|
G|--------6666---13131313--|   |-----6666-5-3---|
D|--------xxxx----x-x-x-x--|x6 |-----xxxx-x-x---| A n’ B :  x2
A|--------4444---11111111--|   |-----4444-3-1---|
E|-------------------------|   |----------------|

Bridge:
e|--------------------------------------------------|
B|--------------------------------------------------|
G|-3x3x3x3x3x3-------------3x3x3--------------------|
D|-3x3x3x3x3x3-44444-33333-3x3x3-3x3x3-44444-66666--|
A|-1x1x1x1x1x1-44444-33333-1x1x1-3x3x3-44444-66666--|
E|-------------22222-11111-------1x1x1-22222-44444--|

Guitar 2:
e|---------------------------------------------------------|
B|---------------------------------------------------------|
G|-----------------------------------------------6666-5-3--|
D|-----------------------------------------------xxxx-x-x--|x3
A|-----------------------------------------------4444-3-1--|
E|---------------------------------------------------------|

Outro:
e|------------------------------|
B|------------------------------|
G|---3333x----------------------|
D|---3333x----------------------|
A|---1111x----------------------|
E|------------------------------|

"Tokio Hotel" , please ¡Come to Perú! 
Official Fan Club of Tokio Hotel in Perú. http://tokiohotelperu.foroactivo.com/

            
            
Suggest correction
Creating personal tab
Creating personal tab
You can edit any tab online and save it as your Personal.

You can edit, replace or remove any tab part or add personal notes – all changes will be seen only by you.

Personal tabs can be accessed anytime from any device, even offline.
Learn more »
Give kudos to tab author, rate the tab!
1 2 3 4 5
comments
print report bad tab
guest
You may want to rate the tab now too:
select rating
Wanna post a correction for this tab? Suggest correction