Oops, an error
Loading. Please wait.

Attention tab

version 1
version 1

Whole song

7,381 views 12 this week
2 commentsread comments
1 2 3 4 5
x 3
add to favorites
×
Save as Personal and add changes to this tab that will be seen only by you. Learn more ›
×
You can save this tab as Personal to edit and correct it or add notes. All changes will be seen only by you. Learn more »
launch autoscroll
font size
0
reset
how to read this tab
guitar tuner
edit
Autoscroll
slow
fast
+/-
esc
set tempo
stop
Author
Difficulty
Tokio Hotel - Attention

e-mail: xcandyrock@gmail.com

[updated 14/02/2010]

Tuning: Guitar 1, 2 and 3: E


Guitar 1 (light distortion)
INTRO
e|---------------------------|
B|-1-2-4-2--1---1-2-4--2--1--|
G|---------------------------| x4
D|---------------------------|
A|---------------------------|
E|---------------------------|

VERSE
0:18
I'm trying to tell you..
e|----------------------------------------|
B|----------------------------------------|
G|----------------------------------------|
D|-1-3-3--1-1-3-3-3--3-3-1-1-1-1-1-1-1-1--|
A|----------------------------------------|
E|----------------------------------------|
p.m.......................................

0:27
Soon as you got me..
e|----------------------------------------|
B|----------------------------------------|
G|-1-1-1--1-1-1-1-1--1-1-1-1-1-1-3-3-3-3--|
D|-1-3-3--1-1-3-3-3--3-3-1-1-1-1-1-1-1-1--|
A|----------------------------------------|
E|----------------------------------------|
p.m.......................................

REFRAIN
0:35
Oh no, I'll never let you go
e|-----------------------------------------------------|
B|-----------------------------------------------------|
G|-----------------------------------------------------|
D|--3-3-3-3-3-3--6-6-6-6-6-6--3-3-3-3-3-3--6-6-6-6-6-6-|
A|--1-1-1-1-1-1--4-4-4-4-4-4--1-1-1-1-1-1--4-4-4-4-4-4-|
E|-----------------------------------------------------|
p.m....................................................

CHORUS
0:43
It's not what you said, it's the way you say it
e|-----------------------------------|
B|-----------------------------------|
G|----------6-6-------8-8------------|
D|-3-3------6-6-------8-8-----8-8----|
A|-3-3------4-4-------6-6-----8-8----|
E|-1-1------------------------6-6----|

0:51
Sick and tired of needing your attention
e|-------------------------------------|
B|-------------------------------------|
G|----------6-6-------8-8-----------6--|
D|-3-3------6-6-------8-8-----8-8---6--|
A|-3-3------4-4-------6-6-----8-8---4--|
E|-1-1------------------------6-6------|

VERSE (same as above)
CHORUS (same as above)

BRIDGE
1:51
I'm standing in the pain..
e|----------------------------------|
B|----------------------------------|
G|-/13-13-13-12--/10-10-10-9--/5-3--|
D|---x--x--x--x----x--x--x--x--x-x--| x2
A|-/11-11-11-10----8--8--8-7--/3-1--|
E|----------------------------------|

2:07
That I'm starving for your love
e|-----------------------------6----------|
B|-----------------------------6----------|
G|-66666666-33333333-66666666--6----------|
D|-66666666-33333333-66666666--8----------|
A|-44444444-11111111-44444444--8----------|
E|-----------------------------6----------|


CHORUS
2:17
It's not what you said
e|--------------------------------------|
B|--------------------------------------|
G|----------666666666-88888888----------|
D|-33333333-666666666-88888888-88888888-| x4
A|-33333333-444444444-66666666-88888888-|
E|-11111111--------------------66666666-|

2:50                            2:56
Than live without...         attention
e|----------------------------------1-------|
B|-----------------------------------1------|
G|--6---------------------------------1-----|
D|--6----------------------------------3----|
A|--4-----------------------------------3---|
E|---------------------------------------1--|

---------------------------------------------------------------------------
Guitar 2 & 3

Intro
guitar 2
e|---------------------------------------|
B|---------------------------------------|
G|---------------------------------------|
D|-3-3--3-3------------------------------| x2
A|-----------4-4--4-4------------6-6-6-6-|
E|---------------------4-4--4-4----------|

guitar 3
e|---------------------------------------|
B|--9~-----8h9p10-9---/9----6---4/6------|
G|---------------------------------------|
D|---------------------------------------|
A|---------------------------------------|
E|---------------------------------------|

Verse
guitar 2
e|---------------------------------------|
B|---------------------------------------|
G|-----------6----6--------------8---8---|
D|-3----3----6----6----6----6----8---8---|
A|-3----3----4----4----6----6----6---6---|
E|-1----1--------------4----4------------|

guitar 2
e|---------------------------------------|
B|---------------------------------------|
G|---------------------------------------|
D|----------6-6--6666-----------4-4-4444-|
A|-3-3-3333-4-4--4444-6-6-6666--6-6-6666-|
E|-1-1-1111-----------4-4-4444-----------|


Refrain

oh no.. I'll never let you go
guitar 2
e|-----------------------------------------------------|
B|-----------------------------------------------------|
G|--3-3-3-3-3-3--6-6-6-6-6-6--3-3-3-3-3-3--6-6-6-6-6-6-|
D|--3-3-3-3-3-3--6-6-6-6-6-6--3-3-3-3-3-3--6-6-6-6-6-6-|
A|--1-1-1-1-1-1--4-4-4-4-4-4--1-1-1-1-1-1--4-4-4-4-4-4-|
E|-----------------------------------------------------|

guitar 3
e|-------6------------------------6--------------------|
B|------6------------------------6---------------------|
G|-----6------------------------6----------------------|
D|----8------------------------8-----------------------|
A|---8------------------------8------------------------|
E|--6------------------------6-------------------------|


CHORUS

it's not what you said, it's the way you say it
guitar 2
e|---------------------------------------|
B|---------------------------------------|
G|----------6-6--6666-8-8-8888-----------|
D|-3-3-3333-6-6--6666-8-8-8888--8-8-8888-|
A|-3-3-3333-4-4--4444-6-6-6666--8-8-8888-|
E|-1-1-1111---------------------6-6-6666-|

guitar 3
e|----------------------------6---6---6---6----|
B|------------6---6---6---6-----6---6---6---6--|
G|--6-8-6-5-----5---5---5---5------------------|
D|---------------------------------------------|
A|---------------------------------------------|
E|---------------------------------------------|

e|-------------------6---6----4-3-------|
B|---6---6---6---6-----6---6------5-4-5-|
G|-----5---5---5---5--------------------|
D|--------------------------------------|
A|--------------------------------------|
E|--------------------------------------|


sick and tired of needing your attention..
guitar 2
e|-----------------------------------------|
B|-----------------------------------------|
G|----------6-6--6666-8-8-8888-----------6-|
D|-3-3-3333-6-6--6666-8-8-8888--8-8-8888-6-|
A|-3-3-3333-4-4--4444-6-6-6666--8-8-8888-4-|
E|-1-1-1111---------------------6-6-6666---|

guitar 3
e|--6-------6-------6-------------------------------|
B|----6---6---6---6---6---6---6----------/9-8-6-----|
G|------8-------8-------8-------5----5----------8-5-|
D|---------------------------------6----------------|
A|--------------------------------------------------|
E|--------------------------------------------------|

Interlude
guitar 3
e|---------------------|
B|-------------6-8--6--|
G|---------6-8---------|
D|-----6-8-------------|
A|-6-8-----------------|
E|---------------------|

Verse

guitar 2
e|---------------------------------------|
B|---------------------------------------|
G|-----------6----6--------------8---8---|
D|-3----3----6----6----6----6----8---8---|
A|-3----3----4----4----6----6----6---6---|
E|-1----1--------------4----4------------|
I swallow the poison...

guitar 2
e|---------------------------------------|
B|---------------------------------------|
G|---------------------------------------|
D|----------6-6--6666-----------4-4-4444-|
A|-3-3-3333-4-4--4444-6-6-6666--6-6-6666-|
E|-1-1-1111-----------4-4-4444-----------|


Refrain

oh no.. I'll never let you go
guitar 2
e|-----------------------------------------------------|
B|-----------------------------------------------------|
G|--3-3-3-3-3-3--6-6-6-6-6-6--3-3-3-3-3-3--6-6-6-6-6-6-|
D|--3-3-3-3-3-3--6-6-6-6-6-6--3-3-3-3-3-3--6-6-6-6-6-6-|
A|--1-1-1-1-1-1--4-4-4-4-4-4--1-1-1-1-1-1--4-4-4-4-4-4-|
E|-----------------------------------------------------|


CHORUS

it's not what you said, it's the way you say it

guitar 2
e|---------------------------------------|
B|---------------------------------------|
G|----------6-6--6666-8-8-8888-----------|
D|-3-3-3333-6-6--6666-8-8-8888--8-8-8888-|
A|-3-3-3333-4-4--4444-6-6-6666--8-8-8888-|
E|-1-1-1111---------------------6-6-6666-|

guitar 3
e|----------------------------6---6---6---6----|
B|------------6---6---6---6-----6---6---6---6--|
G|--6-8-6-5-----5---5---5---5------------------|
D|---------------------------------------------|
A|---------------------------------------------|
E|---------------------------------------------|

e|-------------------6---6----4-3-------|
B|---6---6---6---6-----6---6------5-4-5-|
G|-----5---5---5---5--------------------|
D|--------------------------------------|
A|--------------------------------------|
E|--------------------------------------|

sick and tired of needing your attention..

guitar 2
e|---------------------------------------------------|
B|---------------------------------------------------|
G|----------6-6--6666-8-8-8888-----------6-6-6-6-6-6-|
D|-3-3-3333-6-6--6666-8-8-8888--8-8-8888-6-6-6-6-6-6-|
A|-3-3-3333-4-4--4444-6-6-6666--8-8-8888-4-4-4-4-4-4-|
E|-1-1-1111---------------------6-6-6666-------------|

guitar 3
e|--6-------6-------6-------------------------------|
B|----6---6---6---6---6---6---6----------/9-8-6-----|
G|------8-------8-------8-------5----5----------8-5-|
D|---------------------------------6----------------|
A|--------------------------------------------------|
E|--------------------------------------------------|


BRIDGE

guitar 2
I'm standing in the pain..
e|---------------------------------------|
B|---------------------------------------|
G|----------6-6--6666-8-8-8888--8-8-8888-|
D|-3-3-3333-6-6--6666-8-8-8888--8-8-8888-| x2
A|-3-3-3333-4-4--4444-6-6-6666--6-6-6666-|
E|-1-1-1111------------------------------|

that I'm starving for your love...
e|---------------------------------------|
B|---------------------------------------|
G|-66666666-33333333---------------------|
D|-66666666-33333333---------------------|
A|-44444444-11111111---------------------|
E|---------------------------------------|


CHORUS
guitar 3: same as always

it's not what you said, it's the way you say it
guitar 2
e|--------------------------------------|
B|--------------------------------------|
G|----------666666666-88888888----------|
D|-33333333-666666666-88888888-88888888-| x4
A|-33333333-444444444-66666666-88888888-|
E|-11111111--------------------66666666-|


D (hold)
than live without your attention 

end on F#m
Suggest correction
Creating personal tab
Creating personal tab
You can edit any tab online and save it as your Personal.

You can edit, replace or remove any tab part or add personal notes – all changes will be seen only by you.

Personal tabs can be accessed anytime from any device, even offline.
Learn more »
Give kudos to tab author, rate the tab!
1 2 3 4 5
comments
print report bad tab
2 comments total.
0 reply
huskers-13 10 Oct 13, 2010 01:30 PM

I'm not trying to be an ******* or anything, but there is no reason that this should be in half step down tuning.

0 reply
CandyRock 521 Oct 15, 2010 07:59 AM

You're absolutely right. There's an open e-string in the intro, though, but I mainly did it because my guitar is always tuned a half step down and I think Tokio Hotel play all their songs in Eb-tuning too. You could perfectly play it in standard tuning, just think one fret lower.

guest
You may want to rate the tab now too:
select rating
Wanna post a correction for this tab? Suggest correction